Song name
# A B C D E F G H I J K L M N O P Q R S T U V W X Y Z

A Banda Mais Bonita Da Cidade - Uma Atriz tab

Artist: A Banda Mais Bonita da Cidade
Song: Uma Atriz
Album: O Mais Feliz da Vida
Tabbed by: gustavoaraujo999@hotmail.com

Official website: http://abandamaisbonitadacidade.art.br/

intro.
e|-------7---|-------7---|----------------|-----------|
B|-----7---7-|-----7---7-|---------10-----|-------9---|
G|---7-------|---7-------|------11----11--|-----9---9-|
D|-9---------|-9---------|---11-----------|---9-------|
A|-----------|-----------|-9--------------|-7---------|
E|-----------|-----------|----------------|-----------|


interlude.
e|----------------------------------------------------------------------------|
B|-------------------------------------------------------------------------12-|
G|------x-9h11-------------x-9h11-------------x--9h11-------------x--9h11-----|
D|-9-12--------12-----9-12--------12-----9-12---------12-----9-12-------------|
A|----------------------------------------------------------------------------|
E|----------------------------------------------------------------------------|


chorus.
e|---------------------------------------------------------------|
B|-10--------10--------------------------------------------------|
G|----11--------11-----------------------------------------------|
D|-------11--------11-11--11b12br11-9----------------------------|
A|---------------------------------------------------------------|
E|---------------------------------------------------------------|

e|---------------------------------------------------------------|
B|-------------------9-----12------------------------------------|
G|-11-11-9-9---11------------------------------------------------|
D|--------------------------------/12---11---9---7---------------|
A|---------------------------------------------------------------|
E|---------------------------------------------------------------|


solo 1.
e|---------------------------------------------------------------|
B|---------------------------------------------------------------|
G|-----x-2-x-4--4b6br4-2-4-----------------------14b16-----------|
D|-x-2---------------------4/6-------------12--------------------|
A|-----------------------------------12/14----14-----------------|
E|---------------------------------------------------------------|


outro.
e|---------------------------------------------------------------|
B|---------------------------------------------------------------|
G|----------------------------------------------------4----------|
D|-------0-/4--------0-/4--/4--2--------------3p2p0--------------|
A|-0-2-4-------0-2-4--------------5\2------x--------2----2-------|
E|---------------------------------------------------------------|

e|---------------------------------------------------------------|
B|---------------------------------------------------------------|
G|---------------------------------------------------------------|
D|---------------------------------------------------------------|
A|-/5-/5--/4-/4--0-2-4-2-----------------------------------------|
E|---------------------------------------------------------------|



e|-------14-----14------12------10------9-----7-----5------------------|
B|-----15----------15------12------10-----7-----5-----3---3^-3^-3^-----|
G|---12-------------------------------------------------------------4--|
D|-12----------------------------------0-------------------------------|
A|---------------------------------------------------------------------|
E|---------------------------------------------------------------------|

e|-----------------------------|
B|-7----5---3---2--------------|
G|-9b11-7b9-5b7-4b6---r4-------|
D|-----------------------------|
A|-----------------------------|
E|-----------------------------|

piano.
e|--------------------------------|
B|---------10-9------------10-12--|
G|-------9---------------9--------|
D|-11-12-----------11-12----------|
A|--------------------------------|
E|--------------------------------|
Tap to rate this tab
# A B C D E F G H I J K L M N O P Q R S T U V W X Y Z