Guitaretab - guitar tabs
Song name
# A B C D E F G H I J K L M N O P Q R S T U V W X Y Z

A Beautiful Tragedy - Shadows In The Horizon tab

-------------------------------------------------------------------------------
			     shadows in the horizon
                              a beautiful tragedy
-------------------------------------------------------------------------------
Tabbed by:hxcforlife
Email:jabo256@aol.com

Tuning:drop-d       this is only lead.will ryhthm have up later
                               play six times
e|---------------------------------------------------------------------------|
B|---------------------------------------------------------------------------|
G|---------------------------------------------------------------------------|
D|--xxx-xxx------xxx-xxx------------xxx-xxx----------------------------------|
A|--xxx-xxx-878--xxx-xxx-8781087----xxx-xxx-878--xxx-xxx-87810878------------|
E|--xxx-xxx------xxx-xxx-------=10+-xxx-xxx---------------------8------------|
                                breakdown:play four times
e|---------------------------------------------------------------------------|
B|---------------------------------------------------------------------------|
G|---------------------------------------------------------------------------|
D|--xxx-xxx-----x-----xxx-xxx-xxx--2\3--xxx-xxx-----x-----xxx-xxx-xxx--------|
A|--xxx-xxx--8--x--7--xxx-xxx-xxx--2\3--xxx-xxx--8--x--7--xxx-xxx-xxx--------|
E|--xxx-xxx-----x-----xxx-xxx-xxx--2\3--xxx-xxx-----x-----xxx-xxx-xxx--3+----|
                         play four times
e|---------------------------------------------------------------------------|
B|---------------------------------------------------------------------------|
G|---------------------------------------------------------------------------|
D|--xx-----xx-----xx-------10p8/7-8p7-5h7-7p5/3-5p3/2-3p2--------------------|
A|--xx-5h7-xx-7h8-xx-8h10--------------------------------3\5-----------------|
E|--xx-----xx-----xx---------------------------------------------------------|
hold last note on the 5th
[ Tab from: http://www.guitaretab.com/a/a-beautiful-tragedy/69145.html ]
                                 one time
e|---------------------------------------------------------------------------|
B|---------------------------------------------------------------------------|
G|---------------------------------------------------------------------------|
D|---------------------------------------------------------------------------|
A|--5\7----7\8----10-8-7--3\5----5\7----7\8----10-8-7------------------------|
E|---------------------------------------------------------------------------|
                          play three times
e|---------------------------------------------------------------------------|
B|---------------------------------------------------------------------------|
G|---------------------------------------------------------------------------|
D|-----------------------------------------------------10p8-7h8--------------|
A|--8-7h8-10p8-7h8-10--8-7h8-10p8-7h8-8--8-h78-10p8-7h8--------10p8-7h8------|
E|-----------------10-----------------8---------------------------------10+--|
                            breakdown:play eight times
e|---------------------------------------------------------------------------|
B|-------------------------------------------6--6--6--6----------------------|
G|-------------------------------------------9--9--9--9----------------------|
D|--xx-xxx----xxx-xxx--------xx-xxx----xxx-xxx-------------------------------|
A|--xx-xxx----xxx-xxx--1+----xx-xxx----xxx-xxx-------------------------------|
E|--xx-xxx----xxx-xxx--------xx-xxx----xxx-xxx-------------------------------|
                              play four times
e|---------------------------------------------------------------------------|
B|---------------------------------------------------------------------------|
G|---------------------------------------------------------------------------|
D|--xxx-xxx------xxx-xxx------------xxx-xxx----------------------------------|
A|--xxx-xxx-878--xxx-xxx-8781087----xxx-xxx-878--xxx-xxx-87810878------------|
E|--xxx-xxx------xxx-xxx-------=10+-xxx-xxx---------------------8------------|
hold last note on eighth fret last time only


e|---------------------------------------------------------------------------|
B|---------------------------------------------------------------------------|
G|---------------------------------------------------------------------------|
D|--xxx----xxxxxxx----x-x-x-0------------------------------------------------|
A|--xxx----xxxxxxx----x-x-x-0------------------------------------------------|
E|--xxx----xxxxxxx----x-x-x-0------------------------------------------------|
let last note ring ring




| /  slide up
| \  slide down
| h  hammer-on
| p  pull-off
| ~  vibrato
| +  harmonic
| x  Mute note
===============================================================================