Guitaretab - guitar tabs
Song name
# A B C D E F G H I J K L M N O P Q R S T U V W X Y Z

A Brand - A Perfect Habitat For Foxes tab

A Brand  A Perfect Habitat For Foxes
Gtr 1:
E--12--12--12--12---------------------14--14--14--14----------------------------------|
B---------------------12--12--12--12----------------------15--15--15--15--------------|
G-------------------------------------------------------------------------------------|
D-------------------------------------------------------------------------------------|
A-------------------------------------------------------------------------------------|
e-------------------------------------------------------------------------------------|

Bass:
G--0----2--2--2--2-2--2--|-0-0-0-0-0-0-0-0----------------------2-2-2-2-2-2-2-2-2--|
D-----0---------------------|---------------------0-0-0-0-0-0-0-0------------------|
A----------------------------|-----------------------------------------------------|
e-----------------------------|----------------------------------------------------|
[ Tab from: http://www.guitaretab.com/a/a-brand/83113.html ]
Gtr 2:
E-------19-------19--24-------19-------24----------------------------------|
B--19-------19------------19-------19--------------------------------------|
G--------------------------------------------------------------------------|
D--------------------------------------------------------------------------|
A--------------------------------------------------------------------------|
e--------------------------------------------------------------------------|

Bridge:
Everybody plays A

Refrein: Everbody plays G D A A
Gtr 1:
E--12-----------------12-----------------12-----------------12-------------------------|
B-------15--12------------15--12------------15--12------------15--12-------------------|
G-----------------14-----------------14-----------------14-----------------14----------|
D--------------------------------------------------------------------------------------|
A--------------------------------------------------------------------------------------|
e--------------------------------------------------------------------------------------|

Gtr 2:
E-----------------12-----------------12-----------------12-----------------12----------|
B--15-----------------15-----------------15-----------------15-------------------------|
G-------12--14------------12--14------------12--14------------12--14-------------------|
D--------------------------------------------------------------------------------------|
A--------------------------------------------------------------------------------------|
e--------------------------------------------------------------------------------------|
Related for A Perfect Habitat For Foxes tab