Song name
# A B C D E F G H I J K L M N O P Q R S T U V W X Y Z

A Change Of Pace - Weekend Warriors tab

This is the Solo Part to Weekend Warriors by A Change Of Pace
Pretty sure this is correct..if not let me know.
tzeut_3@hotmail.com
This is my first tab...

1st time

e|---9p7----9p7----9p7----9p7----9p7----9p7----9p7----9p7-----10^12----|
B|------10p7---10p7---10p7---10p7---10p7---10p7---10p7---10p7----------|
G|---------------------------------------------------------------------|
D|---------------------------------------------------------------------|
A|---------------------------------------------------------------------|
D|---------------------------------------------------------------------|

2nd time

e|---9p7----9p7----9p7----9p7----9p7----9p7----9p7----9p7-----10x8-12^14---|
B|------10p7---10p7---10p7---10p7---10p7---10p7---10p7---10p7--------------|
G|-------------------------------------------------------------------------|
D|-------------------------------------------------------------------------|
A|-------------------------------------------------------------------------|
D|-------------------------------------------------------------------------|

3rd time

e|---9p7----9p7----9p7----9p7----9p7----9p7----9p7----9p7-----10^12----|
B|------10p7---10p7---10p7---10p7---10p7---10p7---10p7---10p7----------|
G|---------------------------------------------------------------------|
D|---------------------------------------------------------------------|
A|---------------------------------------------------------------------|
D|---------------------------------------------------------------------|

4th and final time

e|---9p7----9p7----9p7----9p7----9p7----9p7----9p7----9p7-----10-----10/12-|
B|------10p7---10p7---10p7---10p7---10p7---10p7---10p7---10p7--------------|
G|-------------------------------------------------------------------------|
D|-------------------------------------------------------------------------|
A|-------------------------------------------------------------------------|
D|-------------------------------------------------------------------------|

e----12/15^17-----|
B-----------------|
G-----------------|
D-----------------|
A-----------------|
D-----------------|
Tap to rate this tab
 
# A B C D E F G H I J K L M N O P Q R S T U V W X Y Z