Song name
# A B C D E F G H I J K L M N O P Q R S T U V W X Y Z

A Change Of Pace - How To Rape A Country chords

A Change Of Pace - How to Rape a Country

Hi there, the other tab was way off... so I tabbed it myself.
And Im not saying that this tab is 100% correct but a lot closer
than the other tab :) Enjoy!

Intro
Guitar 1 & 2
E|--------------------------------------------------|
B|--------------------------------------------------|
G|--------------------------------------------------|
D|-0--0-5-3-0-0-0--0--0-8-7-5-0-0-0--0--0-5-3-0-0-0-|
A|-0--0-5-3-0-0-0--0--0-8-7-5-0-0-0--0--0-5-3-0-0-0-|
D|-0--0-5-3-0-0-0--0--0-8-7-5-0-0-0--0--0-5-3-0-0-0-|

(Guitars in the intro are so hard to hear clearly)

Harmony Riff
Guitar 1		Guitar 2
E|----------------|	E|---------------|	(Okay Im not 100% sure about
B|----------------|	B|---------------|	 this harmony riff, its so
G|----------------|	G|---------------|	 hard to hear clearly, but this will do)
D|-8-7------------|	D|-4-3-----------|
A|-----8-7-10-8-7-|	A|-----4-3-6-4-3-|
D|----------------|	D|---------------|

Verse
Guitar 1
E|------------------------------------------------------------------------|
B|------------------------------------------------------------------------|x2
G|------------------------------------------------------------------------|
D|-0--0-0---5-7-8---0--0-0---10-8-7-8---0--0-0---5-7-8---0--0-0---5-7-8-7-|
A|-0--0-0---5-7-8---0--0-0---10-8-7-8---0--0-0---5-7-8---0--0-0---5-7-8-7-|
D|-0--0-0---5-7-8---0--0-0---10-8-7-8---0--0-0---5-7-8---0--0-0---5-7-8-7-|

Guitar 2
E|------------------------------------------------|
B|------------------------------------------------|x2
G|-101010101010101010101010101010-999999999999999-|
D|-x-x-x-x-x-x-x-x-x-x-x-x-x-x-x--xxxxxxxxxxxxxxx-|
A|-8-8-8-8-8-8-8-8-8-8-8-8-8-8-8--777777777777777-|
D|------------------------------------------------|

Pre-Chorus
E|------------------------------------------------------------------|
B|------------------------------------------------------------------|
G|------------------------------------------------------------------|
D|-0----------------5----------------8----------------7-7-7-7-7-7-7-|
A|-0----------------5----------------8----------------7-7-7-7-7-7-7-|
D|-0----------------5----------------8----------------7-7-7-7-7-7-7-|

Chorus
Guitar 1
E|------------------------------------------------------------------------|
B|------------------------------------------------------------------------|x2
G|------------------------------------------------------------------------|
D|-8888888888888888-0-0--0-0--0-0--0-0-8888888888888888---3--3-3---5--5-5-|
A|-8888888888888888-0-0--0-0--0-0--0-0-8888888888888888---3--3-3---5--5-5-|
D|-8888888888888888-0-0--0-0--0-0--0-0-8888888888888888---3--3-3---5--5-5-|

Guitar 2
E|---------------------------------------------------------------------------------|
B|---------------------------------------------------------------------------------|x2
G|------------------7-7--7-7--9--9--10-10---------------------10p9---------10p9----|
D|------------------x-x--x-x--x--x--x--x---------------------------10-----------10-|
A|------------------5-5--5-5--7--7--8--8-------------------------------------------|
D|---------------------------------------------------------------------------------|

Pre-Verse
Guitar 1 & 2
E|--------------------------------------------------|
B|--------------------------------------------------|
G|--------------------------------------------------|
D|-0--0-5-3-0-0-0--0--0-8-7-5-0-0-0--0--0-5-3-0-0-0-|
A|-0--0-5-3-0-0-0--0--0-8-7-5-0-0-0--0--0-5-3-0-0-0-|
D|-0--0-5-3-0-0-0--0--0-8-7-5-0-0-0--0--0-5-3-0-0-0-|

Harmony Riff
Guitar 1		Guitar 2
E|----------------|	E|---------------|
B|----------------|	B|---------------|
G|----------------|	G|---------------|
D|-8-7------------|	D|-4-3-----------|
A|-----8-7-10-8-7-|	A|-----4-3-6-4-3-|
D|----------------|	D|---------------|

(Repeat verse, but this time there are two more guitars in the background
picking single notes in harmony. Its there so I tabbed it, but its not necessary)

Verse
Guitar 1
E|------------------------------------------------------------------------|
B|------------------------------------------------------------------------|x2
G|------------------------------------------------------------------------|
D|-0--0-0---5-7-8---0--0-0---10-8-7-8---0--0-0---5-7-8---0--0-0---5-7-8-7-|
A|-0--0-0---5-7-8---0--0-0---10-8-7-8---0--0-0---5-7-8---0--0-0---5-7-8-7-|
D|-0--0-0---5-7-8---0--0-0---10-8-7-8---0--0-0---5-7-8---0--0-0---5-7-8-7-|

Guitar 2
E|------------------------------------------------|
B|------------------------------------------------|x2
G|-101010101010101010101010101010-999999999999999-|
D|-x-x-x-x-x-x-x-x-x-x-x-x-x-x-x--xxxxxxxxxxxxxxx-|
A|-8-8-8-8-8-8-8-8-8-8-8-8-8-8-8--777777777777777-|
D|------------------------------------------------|

Harmony Verse
Guitar 3	   Guitar 4
E|------|	  E|------|
B|-13~\-|x4	B|-18~\-|x4
G|------|	  G|------|
D|------|	  D|------|
A|------|	  A|------|
D|------|	  D|------|

(For harmony, Listen to the song for how long and when it is played)

Pre-Chorus
E|------------------------------------------------------------------|
B|------------------------------------------------------------------|
G|------------------------------------------------------------------|
D|-0----------------5----------------8----------------7-7-7-7-7-7-7-|
A|-0----------------5----------------8----------------7-7-7-7-7-7-7-|
D|-0----------------5----------------8----------------7-7-7-7-7-7-7-|

Chorus
Guitar 1
E|------------------------------------------------------------------------|
B|------------------------------------------------------------------------|x2
G|------------------------------------------------------------------------|
D|-8888888888888888-0-0--0-0--0-0--0-0-8888888888888888---3--3-3---5--5-5-|
A|-8888888888888888-0-0--0-0--0-0--0-0-8888888888888888---3--3-3---5--5-5-|
D|-8888888888888888-0-0--0-0--0-0--0-0-8888888888888888---3--3-3---5--5-5-|

Guitar 2
E|---------------------------------------------------------------------------------|
B|---------------------------------------------------------------------------------|x2
G|------------------7-7--7-7--9--9--10-10---------------------10p9---------10p9----|
D|------------------x-x--x-x--x--x--x--x---------------------------10-----------10-|
A|------------------5-5--5-5--7--7--8--8-------------------------------------------|
D|---------------------------------------------------------------------------------|
(Guitar 2 lets ring the last note, as it goes into the bridge)

Bridge
Guitar 1 - Played with Phaser
E|---------------------------------------------------------------------------------|
B|---------------------------------------------------------------------------------|
G|---------------------------------------------------------------------------------|
D|-0--0-0-0-0-0-0-5h7p5-0--0-0-0-0-0-0-8h10p8-0--0-0-0-0-0-0-5h7p5-0--0-0---0--0-0-|
A|-0--0-0-0-0-0-0-5h7p5-0--0-0-0-0-0-0-8h10p8-0--0-0-0-0-0-0-5h7p5-0--0-0---0--0-0-|
D|-0--0-0-0-0-0-0-5h7p5-0--0-0-0-0-0-0-8h10p8-0--0-0-0-0-0-0-5h7p5-0--0-0---0--0-0-|

Guitar 2
E|------------------------------------------------------------|
B|------------------------------------------------------------|
G|------------------------------------------------------------|
D|-[10]----------------12----------------14----------------15-|
A|------------------------------------------------------------|
D|------------------------------------------------------------|

(No need to pick the 10 above again, if letting ring from chorus)

Guitar 1 & 2
E|---0---|	(Both guitars hit this hard just before
B|---0---|	 the heavy part of the bridge kicks in)
G|---0---|
D|-------|
A|-------|
D|-------|

Guitar 1 & 2
E|--------------------------------------------|
B|--------------------------------------------|
G|--------------------------------------------|
D|-0--0-0-0-0-0-0-5h7p5-0--0-0-0-0-0-0-8h10p8-|
A|-0--0-0-0-0-0-0-5h7p5-0--0-0-0-0-0-0-8h10p8-|
D|-0--0-0-0-0-0-0-5h7p5-0--0-0-0-0-0-0-8h10p8-|

E|-----------------------------------------------------| (Guitar 2 does palm muting)
B|-----------------------------------------------------|
G|-----------------------------------------------------|
D|-0--0-0-0-0-0-0-5h7p5-0--0-0--000-00---0--0-0--0-000-|
A|-0--0-0-0-0-0-0-5h7p5-0--0-0--000-00---0--0-0--0-000-|
D|-0--0-0-0-0-0-0-5h7p5-0--0-0--000-00---0--0-0--0-000-|
PM                              ... ..           . ...

Solo

Guitar 1
E|-----------------------------------------------------------------|
B|-----------------------------------------------------------------|
G|-----------------------------------------------------------------|
D|-0--5-7-0-7-8-0-10-0-8-7---8-7-5~--0--5-7-0-7-8-0-10-0-8-7~-12~\-|
A|-----------------------------------------------------------------|
D|-----------------------------------------------------------------|

E|---------------------------------|--------------------------------|
B|---------------------------------|-8*-----------------------------|
G|---------------------------------|----------7*-------10*-------7*-|
D|-0--5-7-0-7-8-0-10-0-8-7---8-7-5-|--------------------------------|
A|---------------------------------|--------------------------------|
D|---------------------------------|--------------------------------|
                                   (These notes are picked harmonics)

Guitar 2
E|-------------------------------------------------------------------------------------|
B|-------------------------------------------------------------------------------------|
G|-------------------------------------------------------------------------------------|
D|-0--0-0-0-0-0-0-5h7p5-0--0-0-0-0-0-0-8h10p8-0--0-0-0-0-0-0-5h7p5-0--0-0---0--0-0--7>-|
A|-0--0-0-0-0-0-0-5h7p5-0--0-0-0-0-0-0-8h10p8-0--0-0-0-0-0-0-5h7p5-0--0-0---0--0-0--5>-|
D|-0--0-0-0-0-0-0-5h7p5-0--0-0-0-0-0-0-8h10p8-0--0-0-0-0-0-0-5h7p5-0--0-0---0--0-0--0>-|

(Guitar 2 plays this under solo)

Pre-Chorus
Guitar 3                    Guitar 1
E|-------------------------|-----------------------------------------|
B|-------6-------6-------6-|-----------------------------------------|
G|-----5-------5-------5---|-----------------------------------------|
D|-3-------3-------3-------|-0-------7-------8-------3--3-3---5--5-5-|
A|-------------------------|-0-------7-------8-------3--3-3---5--5-5-|
D|-------------------------|-0-------7-------8-------3--3-3---5--5-5-|
   (This is played clean)

Chorus

Guitar 1
E|------------------------------------------------------------------------|
B|------------------------------------------------------------------------|x2
G|------------------------------------------------------------------------|
D|-8888888888888888-0-0--0-0--0-0--0-0-8888888888888888---3--3-3---5--5-5-|
A|-8888888888888888-0-0--0-0--0-0--0-0-8888888888888888---3--3-3---5--5-5-|
D|-8888888888888888-0-0--0-0--0-0--0-0-8888888888888888---3--3-3---5--5-5-|

Guitar 2
E|---------------------------------------------------------------------------------|
B|---------------------------------------------------------------------------------|x2
G|------------------7-7--7-7--9--9--10-10---------------------10p9---------10p9----|
D|------------------x-x--x-x--x--x--x--x---------------------------10-----------10-|
A|------------------5-5--5-5--7--7--8--8-------------------------------------------|
D|---------------------------------------------------------------------------------|

Outro
Guitar 1 & 2
E|--------------------------------------------------|
B|--------------------------------------------------|
G|--------------------------------------------------|
D|-0--0-5-3-0-0-0--0--0-8-7-5-0-0-0--0--0-5-3-0-0-0-|
A|-0--0-5-3-0-0-0--0--0-8-7-5-0-0-0--0--0-5-3-0-0-0-|
D|-0--0-5-3-0-0-0--0--0-8-7-5-0-0-0--0--0-5-3-0-0-0-|

Harmony Riff
Guitar 1		Guitar 2
E|----------------|	E|---------------|
B|----------------|	B|---------------|
G|----------------|	G|---------------|
D|-8-7------------|	D|-4-3-----------|
A|-----8-7-10-8-7-|	A|-----4-3-6-4-3-|
D|----------------|	D|---------------|

Guitar 1 & 2
E|-------|
B|-------|
G|-------|
D|---0---|
A|---0---|
E|---0---|
End with this

Note: in the chorus, Guitar 2 also does the strumming bit, but I couldnt
be fucked tabbing it. Also I know there is another guitar in the
background near the end of the song; I just canít be fucked tabbing it! :)

Lyrics

The beat of was reigns on,
Can you hear the sound of marching drums?
Bullets fill the sky,
Men kill to show their nationís pride,
The smell of death and blood,
Hold memories of your loved ones close,
Find hope in pain my friend,
Brothers in arms until the end.

Slumber sweet with dreams of home,
Hand in hand, donít march alone.

Weíve got a thirst for your blood
Itís pumping through our veins
Wait till the moments right
Show no mercy
[◊2]

What do we have to fear?
Lock stock letís blow them all away
Then hide yourself in sleep
Hopeful theyíll take you in the night
Eyes bloodshot red and straining
Youíll see the ghost inside their eyes
A country left in tears
Watching their flag burn and die

Slumber sweet with dreams of home,
Hand in hand, donít march alone.

Weíve got a thirst for your blood
Itís pumping through our veins
Wait till the moments right
Show no mercy
[◊2]

Dreams of home

Weíve got a thirst for your blood
(Weíve got a thirst for your blood)
Wait till the moments right
Show no mercy

Weíve got a thirst for your blood
Itís pumping through our veins
Wait till the moments right
Show no mercy
[◊2]
Tap to rate this tab
# A B C D E F G H I J K L M N O P Q R S T U V W X Y Z