Song name
# A B C D E F G H I J K L M N O P Q R S T U V W X Y Z

A Change Of Pace - A Song The World Can Sing Out Loud tab

Tabbed by: andrewp7
Email: mestupkid7@hotmail.com

Alright, this is not the power chords or anything... This is just the small part on the intro.

Tuning:

e|---------5--7--5-----------5--7--5-----------5-----------------------------|
B|---5--7-----------7--5--7-----------7--5--7--------------------------------|
G|---------------------------------------------------------------------------|
D|---------------------------------------------------------------------------|
A|---------------------------------------------------------------------------|
E|---------------------------------------------------------------------------|

e|---------5--7--5-----------5--7--5-----9--7--5-----------------------------|
B|---5--7-----------7--5--7-----------7--------------------------------------|
G|---------------------------------------------------------------------------|
D|---------------------------------------------------------------------------|
A|---------------------------------------------------------------------------|
E|---------------------------------------------------------------------------|

2X ..... Let ring out the 2nd

There you go, you can either go up or down on the frets. It's up to you.



Tap to rate this tab
 
# A B C D E F G H I J K L M N O P Q R S T U V W X Y Z