Guitaretab - guitar tabs
Song name
# A B C D E F G H I J K L M N O P Q R S T U V W X Y Z

A Cutthroat Kiss - Dear Friends tab

The song starts with the Chorus
(Guitar 1)
e|------------------------------------------------|
B|------------------------------------------------|
G|------------------------------------------------|
D|-------4-----4---------4-----4------------------|
A|---2-2-2-22222-2-2-2-2-2-22222-2-2--------------|
E|------------------------------------------------|
     . .   ....  . . . .   ....  . .

e|------------------------------------------------|
B|------------------------------------------------|
G|------------------------------------------------|
D|-------2-----2---------2-----2------------------|
A|---0-0-0-00000-0-0-0-0-0-00000-0-0--------------|
E|------------------------------------------------|
     . .   ....  . . . .   ....  . .

e|------------------------------------------------|
B|------------------------------------------------|
G|------------------------------------------------|
D|------------------------------------------------|
A|-------5-----5---4-----4-----4------------------|
E|---3-3-3-33333-3-2---2-2-22222-2-2--------------|
     . .   ....  .     .   ....  . .

e|------------------------------------------------|
B|------------------------------------------------|
G|------------------------------------------------|
D|-------2-----2-------4-2-1-2--------------------|
A|---0-0-0-00000-0-0------------------------------|
E|------------------------------------------------|
     . .   ....  . .

Then the Piano and then...

Verse
e|------------------------------------------------|  
B|------------------------------------------------|
G|------------------------------------------------|
D|-------------4-------------4--------------------|
A|---22222-22222---22222-22222--------------------|
E|------------------------------------------------|
     ..... ....    ..... ....
e|------------------------------------------------|
B|------------------------------------------------|
G|------------------------------------------------|
D|-------------2----------2-----------------------|
A|---00000-00000---4---5--0-----------------------|
E|-----------------2---3--------------------------|
     ..... ....
[ Tab from: http://www.guitaretab.com/a/a-cutthroat-kiss/140774.html ]
e|------------------------------------------------|
B|------------------------------------------------|
G|------------------------------------------------|
D|-------4-----4---------4-----4------------------|
A|---2-2-2-22222-2-2-2-2-2-22222-2-2--------------|
E|------------------------------------------------|
     . .   ....  . . . .   ....  . .
e|------------------------------------------------|
B|------------------------------------------------|
G|------------------------------------------------|
D|-------2-----2------------2---------------------|
A|---0-0-0-00000-0-0-4---5--0---------------------|
E|-------------------2---3------------------------|
     . .   ....  . .
e|------------------------------------------------|
B|------------------------------------------------|
G|------------------------------------------------|
D|-------4-----4---------4-----4------------------|
A|---2-2-2-22222-2-2-2-2-2-22222-2-2--------------|
E|------------------------------------------------|
     . .   ....  . . . .   ....  . .
e|------------------------------------------------|
B|------------------------------------------------|
G|------------------------------------------------|
D|-------2-----2---------4--2---------------------|
A|---0-0-0-00000-0-0-4---2--0---------------------|
E|-------------------2----------------------------|
     . .   ....  . .

e|------------------------------------------------|
B|------------------------------------------------|
G|------------------------------------------------|
D|-----------2------------------------------------|
A|---5---4---0------5---4-------------------------|
E|---3---2----------3---2-------------------------|

e|------------------------------------------------|
B|------------------------------------------------|
G|------------------------------------------------|
D|------------------------------------------------|
A|---2-2-2-2-2-2-2-2-4-4-4-4-4-4-4-4--------------|
E|---0-0-0-0-0-0-0-0-2-2-2-2-2-2-2-2--------------|
     . .   . .   .   . .   . .   .

e|------------------------------------------------|
B|------------------------------------------------|
G|------------------------------------------------|
D|------------------9-8---------------------------|
A|---5---4---2------7-6---------------------------|
E|---3---2---0------------------------------------|

Repeat Chorus (x3)

Repeat Verse

Repeat Chorus (x2)

Then it goes...

e|------------------------------------------------|
B|------------------------------------------------|
G|---7---5---7---4---9---7---2------4-------5-----|
D|---7---5---7---4---9---7---2------4-------5-----|
A|---5---3---5---2---7---5---0------2-------3-----|
E|------------------------------------------------|

Then it's the Solo I didn't figured it out yet

Repeat Chorus (x2)

Official Website         http://dat-net.jp/index.html