Song name
# A B C D E F G H I J K L M N O P Q R S T U V W X Y Z

A Day At The Fair - Lost The Lucky tab

Help us improve GuitareTab! Take a short survey!
Palm Mute This Whole Part
E|------------------------------------------------------------------------------|
B|------------------------------------------------------------------------------|
G|------------------------------------------------------------------------------|
D|------------------------------------------------------------------------------|
A|----22222222----99999999----7777777777----6666--------------------------------|
E|------------------------------------------------------------------------------|

This repeats like 4 or 6 times then...

E|------------------------------------------------------------------------------|
B|------------------------------------------------------------------------------|
G|------------------------------------------------------------------------------|
D|------------------------------------------------------------------------------|
A|---44444444----66666666----7777777777777777-----------------------------------|
E|------------------------------------------------------------------------------|

E|--------------------------------------------------|
B|--------------------------------------------------|
G|--------------------------------------------------|
D|---9---11--9--------------------------------------|
A|---7---9---7--------------------------------------|
E|--------------------------------------------------|

Then go back to....

E|------------------------------------------------------------------------------|
B|------------------------------------------------------------------------------|
G|------------------------------------------------------------------------------|
D|------------------------------------------------------------------------------|
A|----22222222----99999999----7777777777----6666--------------------------------|
E|------------------------------------------------------------------------------|

Repeat this for another 4 or 6 times then go back to....

E|------------------------------------------------------------------------------|
B|------------------------------------------------------------------------------|
G|------------------------------------------------------------------------------|
D|------------------------------------------------------------------------------|
A|---44444444----66666666----7777777777777777-----------------------------------|
E|------------------------------------------------------------------------------|

Repeat 4 times then...

E|------------------------------------------------------|
B|------------------------------------------------------|
G|------------------------------------------------------|
D|------------------------------------------------------|
A|----7777----9999--------------------------------------|
E|------------------------------------------------------|

Stop Palm Mute Here
Then go straight into....(by they way those are 11's below).

E|--------------------------------------------------------------------------|
B|--------------------------------------------------------------------------|
G|---44444444----11111111----99999999----8888-------------------------------|
D|---44444444----11111111----99999999----8888-------------------------------|
A|---22222222----99999999----77777777----6666-------------------------------|
E|--------------------------------------------------------------------------|

In the chorus there will also be these...

E|--------------------------------------------------|
B|--------------------------------------------------|
G|----88--66----------------------------------------|
D|----88--66----------------------------------------|
A|----66--44----------------------------------------|
E|--------------------------------------------------|



Thats pretty much it. Enjoy!
Related for Lost The Lucky tab