Song name
# A B C D E F G H I J K L M N O P Q R S T U V W X Y Z

A Day In Black And White - Storming The Bastille tab

Artist: A Day In Black And White
Song: Storming The Bastille
Album: My Heroes Have Always Killed Cowboys
Genre: Screamo
Tab: brecht.pbbfm@gmai.com
 
E||-----5----7----8----7-----7h8p7----5----3------2-------------|
B||--0-----0----0----0-----0-------0-----0----0-----------------|
G||------------------------------------------------------0------|
D||-------------------------------------------------------------|
A||-------------------------------------------------------------|
E||-------------------------------------------------------------|

|-----5----7----8----7------7h8p7----8----10-----12-------------|
|--0-----0----0----0------0-------0-----0-----0-----------------|
|--------------------------------------------------------0------|
|---------------------------------------------------------------|
|---------------------------------------------------------------|
|---------------------------------------------------------------|

The rest of the intro is based upon these few notes, figure it out yourself it'll be easier.
Tap to rate this tab
# A B C D E F G H I J K L M N O P Q R S T U V W X Y Z