Song name
# A B C D E F G H I J K L M N O P Q R S T U V W X Y Z

A Day To Remember - Start The Shooting tab

cirkaservive@aol.com


drop c


intro
-----5~~~-|
-----x----|
-6~~~6~~~-|
-7~~~7~~~-|
-4~~~4~~~-|
----------|


both verse
--------------------------|
--------------------------|
--------------------------|
0~00~000-2~22~222-2~/44-4-|
0~00~000-2~22~222-2~/44-4-|
0~00~000-2~22~222-2~/44-4-|


prechorus
guitar 1
---------------------------------|
---------------------------------|
---------------------------------|
---------------------------------|
-0~0-4p0-2p0-4p0-7-5-4-0-2-4-2-0-|
---------------------------------|

guitar 2 figure out strumming
---------------------------------|
---------------------------------|
---------------------------------|
-0--4--2--0--4--7--0--4--2--0--4-|
-0--4--2--0--4--7--0--4--2--0--4-|
-0--4--2--0--4--7--0--4--2--0--4-|


both chorus figure out strumming
------------------------------------|
------------------------------------|
------------------------------------|
-0--4--2--0--4--7--0--4--2--0--4--7-|
-0--4--2--0--4--7--0--4--2--0--4--7-|
-0--4--2--0--4--7--0--4--2--0--4--7-|


guitar 1 again... strumming
----
----
-14-
-x -
-12-
----


guitar 2
----
----
----
-0~-
-0~-
-0~-


verse
prechorus
chorus


fadey thing
-------|
-------|
-------|
0----9-|
0----9-|
0----9-|


clean part
----------------------------------|
----------------------------------|
---9---9---9---9---9---9---9---9--|
--7-7-7-7-7-7-7-7-7-7-7-7-7-7-7-7-|
-5---5---7---7---4---4---5---5----|
----------------------------------|


------|
------|
------|
-4--2-|
-4--2-|
-4--2-|


chorus (some where in there add guitar 1 from pre chorus) until end
Tap to rate this tab
# A B C D E F G H I J K L M N O P Q R S T U V W X Y Z