Song name
# A B C D E F G H I J K L M N O P Q R S T U V W X Y Z

A Day To Remember - You Shouldve Killed Me When You Had The Chance tab

Key:
PM= Palm muting
h= Hammer-on
\= slide down
~= held note

Tuning: Drop C

Intro:
|---------------------------------------------------------------------|
|---------------------------------------------------------------------|
|---------------------------------------------------------------------|
|------------10~--------------10~--------------10~--------------10~---|
|-5--5--5--5--5~---5--5--5--5--5~---------------8~---------------8~---|
|-----------------------------------8--8--8--8--8~---8--8--8--8--8~---|
 PM=========]     PM=========]     PM=========]     PM=========]

|---------------------------------------------------------------------|
|---------------------------------------------------------------------|
|---------------------------------------------------------------------|
|------------10~--------------10~--------------10~---------------10~--|
|-5--5--5--5--5~---5--5--5--5--5~---------------8~--------------------|
|-----------------------------------8--8--8--8--8~---10-10-10-10-10~--|
 PM=========]     PM=========]     PM=========]     PM==========]


Verse: (0:21)
|-------------------------------------------------------------|
|-------------------------------------------------------------|
|-------------------------------------------------------------|
|---------------------------------------------------------10--|
|-0-------------------------0-0-------------------------0--8--|
|-0-0-0-0-0-0-0-0-0-0-0-0-0-0-0-0-0-0-0-0-0-0-0-0-0-0-0-0--8--|
   PM======================]   PM======================]

|--------------------------------------------------------|
|--------------------------------------------------------|
|--------------------------------------------------------|
|--------------------------------------------------------|
|-------------------------8--10----------10-7-------7--0-|
|-8-8-8-8-8-8-8-8-8-8-8-8-8--10-10-10-10-10-7-7-7-7-7--0-|
 PM======================]     PM=======]    PM====]

|-----------------------------------------------------------|
|-----------------------------------------------------------|
|-----------------------------------------------------------|
|-------------------------------------------------------10--|
|-------------------------0-0-------------------------0--8--|
|-0-0-0-0-0-0-0-0-0-0-0-0-0-0-0-0-0-0-0-0-0-0-0-0-0-0-0--8--|
 PM======================]   PM======================]

|-------------------------------------------------------|
|-------------------------------------------------------|
|-------------------------------------------------------|
|-------------------------------------------------------|
|-------------------------8--10----------10-7-------7---|
|-8-8-8-8-8-8-8-8-8-8-8-8-8--10-10-10-10-10-7-7-7-7-7---|
 PM======================]     PM=======]    PM====]


Pre-chorus: (0:41)
|--------------------------------------------------------------------|
|--------------------------------------------------------------------|
|--------------------------------------------------------------------|
|--------------------------------------------------------------------|
|-5-5-5-5-5-5-5-5--8-8-8-8-8-8-8-8--0-0-0-0-0-0-0-0--3-3-3-3-3-3-3-3-|
|-5-5-5-5-5-5-5-5--8-8-8-8-8-8-8-8--0-0-0-0-0-0-0-0--3-3-3-3-3-3-3-3-|


|--------------------------------------------------------------------|
|--------------------------------------------------------------------|
|--------------------------------------------------------------------|
|----------------------------------------------10----10----10----10\-|
|-8-8-8-8-8-8-8-8--10-10-10-10-10-10-10-10--8-8-8-8-8-8-8-8-8-8-8-8\-|
|-8-8-8-8-8-8-8-8--10-10-10-10-10-10-10-10---------------------------|
                                           PM==] PM==] PM==] PM==]


Chorus: (0:59)
|--------------------------------------------------------------|
|--------------------------------------------------------------|
|--------------------------------------------------------------|
|--------------------------------------------------------------|
|-0-0-0-0-0-0-0-0--8-8-8-8-8-8-8-8--10-10-10-10-10-10-10-10----|
|-0-0-0-0-0-0-0-0--8-8-8-8-8-8-8-8--10-10-10-10-10-10-10-10----|

|---------------------|
|---------------------|
|---------------------|
|---------------------|
|---3-3-3-3-3-3-3-3---|
|---3-3-3-3-3-3-3-3---|

|--------------------------------------------------------------|
|--------------------------------------------------------------|
|--------------------------------------------------------------|
|--------------------------------------------------------------|
|-0-0-0-0-0-0-0-0--8-8-8-8-8-8-8-8--10-10-10-10-10-10-10-10----|
|-0-0-0-0-0-0-0-0--8-8-8-8-8-8-8-8--10-10-10-10-10-10-10-10----|


Interlude: (1:18)
|---------------------------------------------------------------------|
|---------------------------------------------------------------------|
|---------------------------------------------------------------------|
|------------------------------------------------------------7h8h10---|
|-----8------7---8------8------7-7------8------7---8------8-----------|
|-0-0----0-0---0----0-0----0-0------0-0----0-0---0----0-0-------------|
 PM==]  PM==] PM   PM==]  PM==]    PM==]  PM==] PM   PM==]

|-----------------------------------------------------|
|-----------------------------------------------------|
|-----------------------------------------------------|
|-----------------------------------------------------|
|-----8------7---8------8------7-7------8------7---8--|
|-0-0----0-0---0----0-0----0-0------0-0----0-0---0----|
 PM==]  PM==] PM   PM==]  PM==]    PM==]  PM==] PM   

|---------------------------------------------------------------------|
|---------------------------------------------------------------------|
|---------------------------------------------------------------------|
|------------------------------------------------------------7h8h10---|
|-----8------7---8------8------777------8------7---8------8-----------|
|-0-0----0-0---0----0-0----0-0------0-0----0-0---0----0-0-------------|
 PM==]  PM==] PM   PM==]  PM==]    PM==]  PM==] PM   PM==]

|-------------------------------------------------------------------------|
|-------------------------------------------------------------------------|
|-------------------------------------------------------------------------|
|-------------------------------------------------------------------------|
|-----8------7---8------8------777------8------7---8------10---8--7---7h8-|
|-0-0----0-0---0----0-0----0-0------0-0----0-0---0----0-0----0---0--0-----|
 PM==]  PM==] PM   PM==]  PM==]    PM==]  PM==] PM   PM==]

|---------------------------------------------------------------------|
|---------------------------------------------------------------------|
|---------------------------------------------------------------------|
|------------------------------------------------------------7h8h10---|
|-----8------7---8------8------777------8------7---8------8-----------|
|-0-0----0-0---0----0-0----0-0------0-0----0-0---0----0-0-------------|
 PM==]  PM==] PM   PM==]  PM==]    PM==]  PM==] PM   PM==]

|-------------------------------------------------------------------------|
|-------------------------------------------------------------------------|
|-------------------------------------------------------------------------|
|-------------------------------------------------------------------------|
|-----8------7---8------8------777------8------7---8------10---8--7---7h8-|
|-0-0----0-0---0----0-0----0-0------0-0----0-0---0----0-0----0---0--0-----|
 PM==]  PM==] PM   PM==]  PM==]    PM==]  PM==] PM   PM==]


Pre-chorus: (1:49)
|--------------------------------------------------------------------|
|--------------------------------------------------------------------|
|--------------------------------------------------------------------|
|--------------------------------------------------------------------|
|-5-5-5-5-5-5-5-5--8-8-8-8-8-8-8-8--0-0-0-0-0-0-0-0--3-3-3-3-3-3-3-3-|
|-5-5-5-5-5-5-5-5--8-8-8-8-8-8-8-8--0-0-0-0-0-0-0-0--3-3-3-3-3-3-3-3-|


|--------------------------------------------------------------------|
|--------------------------------------------------------------------|
|--------------------------------------------------------------------|
|----------------------------------------------10----10----10----10\-|
|-8-8-8-8-8-8-8-8--10-10-10-10-10-10-10-10--8-8-8-8-8-8-8-8-8-8-8-8\-|
|-8-8-8-8-8-8-8-8--10-10-10-10-10-10-10-10---------------------------|
                                           PM==] PM==] PM==] PM==]

Chorus: (2:08)
|--------------------------------------------------------------|
|--------------------------------------------------------------|
|--------------------------------------------------------------|
|--------------------------------------------------------------|
|-0-0-0-0-0-0-0-0--8-8-8-8-8-8-8-8--10-10-10-10-10-10-10-10----|
|-0-0-0-0-0-0-0-0--8-8-8-8-8-8-8-8--10-10-10-10-10-10-10-10----|

|---------------------|
|---------------------|
|---------------------|
|---------------------|
|---3-3-3-3-3-3-3-3---|
|---3-3-3-3-3-3-3-3---|

|--------------------------------------------------------------|
|--------------------------------------------------------------|
|--------------------------------------------------------------|
|--------------------------------------------------------------|
|-0-0-0-0-0-0-0-0--8-8-8-8-8-8-8-8--10-10-10-10-10-10-10-10----|
|-0-0-0-0-0-0-0-0--8-8-8-8-8-8-8-8--10-10-10-10-10-10-10-10----|



Outro: (2:26)
|----|-0h1-0h1~---0h1-0h1-0~-----0h1-0h1~---0h1-0h1-0~----|
|----|-1~---------1-------1~-----1~---------1-------1~----|
|----|----------------------------------------------------|
|----|----------------------------------------------------|
|-3~-|----------------------------------------------------|
|-3~-|----------------------------------------------------|

|----------------------------------------|
|----------------------------------------|
|----------------------------------------|
|----3-3-3-3-3-3-3-3-3-3-3-3-3-3-3-3-----|
|----3-3-3-3-3-3-3-3-3-3-3-3-3-3-3-3-----|
|----------------------------------------|
    PM==============================]

|----------------------------------------|
|----------------------------------------|
|----------------------------------------|
|----3-3-3-3-3-3-3-3-3-5-5-5-5-2-2h3-----|
|----3-3-3-3-3-3-3-3-3-3-3-3-3-3-3-3-----|
|----------------------------------------|
    PM==============================]

|----------------------------------------|
|----------------------------------------|
|----------------------------------------|
|----3-3-3-3-3-3-3-3-3-3-3-3-3-3-3-3-----|
|----3-3-3-3-3-3-3-3-3-3-3-3-3-3-3-3-----|
|----------------------------------------|
    PM==============================]

|----------------------------------------|
|----------------------------------------|
|----------------------------------------|
|----3-3-3-3-3-3-3-3-3-3-3-3-3-3-3-3-----|
|----3-3-3-3-3-3-3-3-3-3-3-3-3-3-3-3-----|
|----------------------------------------|
    PM==============]

|-------------------------------------------------------------|
|-------------------------------------------------------------|
|-------------------------------------------------------------|
|-------------------------------------------------------------| (X4)
|-3-3-3-3-3-3-3-3-3-3-3-3-3-3-3-3--000-000-000-000-0-0-0-0----|
|-3-3-3-3-3-3-3-3-3-3-3-3-3-3-3-3--000-000-000-000-0-0-0-0----|
 PM=======================================================]

|-----|--------|
|-----|--------|
|-----|--------|
|-----|--------|
|--3~-|--0--3--|
|--3~-|--0--3--|
Tap to rate this tab
# A B C D E F G H I J K L M N O P Q R S T U V W X Y Z