Song name
# A B C D E F G H I J K L M N O P Q R S T U V W X Y Z

A Day To Remember - The Downfall Of Us All tab

Help us improve GuitareTab! Take a short survey!
Drop C - Probably not 100%

Intro


D|---------------------------------------------------------------------|
A|---------------------------------------------------------------------|
F|---------------------------------------------------------------------|
C|-00000000-00-00--0-0-0--00-00--99999999-99-99--55-55-55--------------|
G|-00000000-00-00--0-0-0--00-00--99999999-99-99--55-55-55----4---------|
C|-00000000-00-00--0-0-0--00-00--99999999-99-99--55-55-55-5h7----------|
   ........ .. ..  . . .  .. ..  ........ .. ..  .. .. ..


D|---------------------------------------------------------------------|
A|---------------------------------------------------------------------|
F|---------------------------------------------------------------------|
C|-00000000-00-00--0-0-0--00-00--99999999-99-99--55-55-55--5555--------|
G|-00000000-00-00--0-0-0--00-00--99999999-99-99--55-55-55--5555--------|
C|-00000000-00-00--0-0-0--00-00--99999999-99-99--55-55-55--5555--------|
   ........ .. ..  . . .  .. ..  ........ .. ..  .. .. ..  ....

First Part Of the Verse

()= optional, don't put a lot of emphasis on them if you use them.

D|---------------------------------------------------------------------|
A|-(3)--(12)---(8)-----------------------------------------------------|
F|-(2)--(12)---(7)-----------------------------------------------------|
C|--0----9------5------------------------------------------------------|
G|--0----9------5------------------------------------------------------|
C|--0----9------5------------------------------------------------------|


I think the chorus is somewhat like this

D|------------(x2)--------/--------------------------------------------|
A|-----------------------/---------------------------------------------|
F|(x16)--(x8)--(x8)-----/----(x8)--------------------------------------|
C|-0------9-----5------/-------1----55---------------------------------|
G|-0------9-----5-----/--------1----55---------------------------------|
C|-0------9-----5----/---------1----55---------------------------------|
Related for The Downfall Of Us All tab