Song name
# A B C D E F G H I J K L M N O P Q R S T U V W X Y Z

A Day To Remember - Holdin It Down For The Underground tab

-------------------------------------------------------------------------------
			     SONG NAME - Band Name
-------------------------------------------------------------------------------
Tabbed by:Zack Holden
Email:zackdh1992@yahoo.com myspace.com/zackdh92

Tuning:Drop C (not like template)
umm just a basic thing i threw together.


Intoro Guitar 1
e|---------------------------------------------------------------------------|
B|------10-----10-------10-------10------10-----10-----------------10--------|
G|------7------7--------7--------7-------7------7------------------7---------|
D|--8-8----8-8-----------------------0-0----0-0--------------------0---------|
A|----------------10-10----10-10---------------------------------------------|
E|---------------------------------------------------------------------------|
Guitar 2
e|---------------------------------------------------------------------------|
B|---------------------------------------------------------------------------|
G|---------------------------------------------------------------------------|
D|--8-----5-----0------------------------------------------------------------|
A|--8x8---5x8---0x8----------------------------------------------------------|
E|--8-----5-----0------------------------------------------------------------|
Guitar 1
e|------------------------------------------------------------------------------------|
B|------------------------------------------------------------------------------------|
G|------------------------------------------------------------------------------------|
D|--0-0-0-0-0-0-0---------------------------------------------------------------------|
A|--0-0-0-0-0-0-0---------------------------------------------------------------------|
E|--0-0-0-0-0-0-0---------------------------------------------------------------------|
Guitar 2
e|------------------------------------------------------------------------------|
B|------------------------------------------------------------------------------|
G|------------------------------------------------------------------------------|
D|--0---------------------------------------------------------------------------|
A|--0---------------------------------------------------------------------------|
E|--0---------------------------------------------------------------------------|
Play that power chord but youll have to listen for rhythm. corrections!
Tap to rate this tab
 
# A B C D E F G H I J K L M N O P Q R S T U V W X Y Z