Song name
# A B C D E F G H I J K L M N O P Q R S T U V W X Y Z

A Day To Remember - My Life For Hire tab

Help us improve GuitareTab! Take a short survey!
Band: A Day to Remember
Song: My Life for Hire
Album: Homesick
Tunning: Drop C


Intro
D|---------------------------------------------------------------------------|
A|--------------------------------------13131313131313111111111111101010-----| x2
F|--10101010101010-9--10101010101010-9---x-x-x-x-x-x-x-x-x-x-x-x-x-x-x-x-----|
C|---x-x-x-x-x-x-x-x---x-x-x-x-x-x-x-x--10101010101010-8-8-8-8-8-8-7-7-7-----|
G|---8-8-8-8-8-8-8-7---8-8-8-8-8-8-8-7---------------------------------------|
C|---------------------------------------------------------------------------|

Verse
D|---------------------------------------------------------------------------|
A|---------------------------------------------------------------------------|x2
F|---------------------------------------------------------------------------|
C|---------------------------------------------------------------------------|
G|-0-000-0-000-000000-8-888-5-555-55555--------------------------------------|
C|-0-000-0-000-000000-8-888-5-555-55555--------------------------------------|
PM . ... . ... ...... . ... . ... .....

D|---------------------------------------------------------------------------|
A|-------------------------------1313-13131313--1111--11111110---------------|x2
F|-1010-1010109---1010-1010109----x-x--x-x-x-x---x-x--x-x-x-x----------------|
C|--x-x--x-x-xx----x-x--x-x-xx---1010-10101010---8-8--8-8-8-7----------------|
G|--8-8--8-8-87----8-8--8-8-87-----------------------------------------------|
C|---------------------------------------------------------------------------|

Pre-Chorus
D|---------------------------------------------------------------------------|
A|---------------------------------------------------------------------------|
F|-------------------------------77777777777---1010101010101010--------------|
C|--8888888888--10101010101010---77777777777---1010101010101010--------------|
G|--8888888888--10101010101010---55555555555----8-8-8-8-8-8-8-8--------------|
C|--8888888888--10101010101010-----------------------------------------------|

D|---------------------------------------------------------------------------|
A|---------------------------------------------------------------------------|
F|---------------------------------------------------------------------------|
C|--8888888888--10101010101010---11------------------------------------------|
G|--8888888888--10101010101010---11------------------------------------------|
C|--8888888888--10101010101010---11------------------------------------------|

Chorus
D|---------------------------------------------------------------------------|
A|------------------------------13131313131313111111111111101010-------------|
F|--77777777-999999--10101010----x-x-x-x-x-x-x-x-x-x-x-x-x-x-x-x-------------|
C|--xxxxxxxx-xxxxxx--x-x-x-x----10101010101010-8-8-8-8-8-8-7-7-7-------------|
G|--55555555-777777--8-8-8-8-------------------------------------------------|
C|---------------------------------------------------------------------------|

D|---------------------------------------------------------------------------|
A|---------------------------------------------------------------------------|
F|-10101010101010--121212--141414-10101010101010--99999----------------------|
C|--x-x-x-x-x-x-x---x-x-x---x-x-x--x-x-x-x-x-x-x--xxxxx----------------------|
G|--8-8-8-8-8-8-8--101010--121212--8-8-8-8-8-8-8--77777----------------------|
C|---------------------------------------------------------------------------|

D|---------------------------------------------------------------------------|
A|---------------------------------------------------------------------------|
F|-1010-1010109--1010-1010109------------------------------------------------|
C|--x-x--x-x-xx---x-x--x-x-xx------------------------------------------------|
G|--8-8--8-8-87---8-8--8-8-87------------------------------------------------|
C|---------------------------------------------------------------------------|

Verse
D|---------------------------------------------------------------------------|
A|---------------------------------------------------------------------------|x2
F|---------------------------------------------------------------------------|
C|---------------------------------------------------------------------------|
G|-0-000-0-000-000000-8-888-5-555-55555--------------------------------------|
C|-0-000-0-000-000000-8-888-5-555-55555--------------------------------------|
PM . ... . ... ...... . ... . ... .....

D|---------------------------------------------------------------------------|
A|-------------------------------1313-13131313--1111--11111110---------------|x2
F|-1010-1010109---1010-1010109----x-x--x-x-x-x---x-x--x-x-x-x----------------|
C|--x-x--x-x-xx----x-x--x-x-xx---1010-10101010---8-8--8-8-8-7----------------|
G|--8-8--8-8-87----8-8--8-8-87-----------------------------------------------|
C|---------------------------------------------------------------------------|

Pre-Chorus
D|---------------------------------------------------------------------------|
A|---------------------------------------------------------------------------|
F|-------------------------------77777777777---1010101010101010--------------|
C|--8888888888--10101010101010---77777777777---1010101010101010--------------|
G|--8888888888--10101010101010---55555555555----8-8-8-8-8-8-8-8--------------|
C|--8888888888--10101010101010-----------------------------------------------|

D|---------------------------------------------------------------------------|
A|---------------------------------------------------------------------------|
F|---------------------------------------------------------------------------|
C|--8888888888--10101010101010---11------------------------------------------|
G|--8888888888--10101010101010---11------------------------------------------|
C|--8888888888--10101010101010---11------------------------------------------|

Chorus
D|---------------------------------------------------------------------------|
A|------------------------------13131313131313111111111111101010-------------|
F|--77777777-999999--10101010----x-x-x-x-x-x-x-x-x-x-x-x-x-x-x-x-------------|
C|--xxxxxxxx-xxxxxx--x-x-x-x----10101010101010-8-8-8-8-8-8-7-7-7-------------|
G|--55555555-777777--8-8-8-8-------------------------------------------------|
C|---------------------------------------------------------------------------|

D|---------------------------------------------------------------------------|
A|---------------------------------------------------------------------------|
F|-10101010101010--121212--141414-10101010101010--99999----------------------|
C|--x-x-x-x-x-x-x---x-x-x---x-x-x--x-x-x-x-x-x-x--xxxxx-----0~---------------|
G|--8-8-8-8-8-8-8--101010--121212--8-8-8-8-8-8-8--77777-----0~---------------|
C|----------------------------------------------------------0----------------|

Brutal Breakdown (its the top two open strings just find the strum pattern, its not hard)
D|----------------------------------------------------|-----------------------|
A|----------------------------------------------------|-----------------------|
F|----------------------------------------------------|-----------------------|
C|----------------------------------------------------|-8-10-11---------------|
G|-0-000000--000000000--0-000000----------------------|-8-10-11---------------|
C|-0-000000--000000000--0-000000----------------------|-8-10-11---------------|
PM . ......  .........  . ......                        After Breakdown

Chorus
D|---------------------------------------------------------------------------|
A|------------------------------13131313131313111111111111101010-------------|
F|--77777777-999999--10101010----x-x-x-x-x-x-x-x-x-x-x-x-x-x-x-x-------------|
C|--xxxxxxxx-xxxxxx--x-x-x-x----10101010101010-8-8-8-8-8-8-7-7-7-------------|
G|--55555555-777777--8-8-8-8-------------------------------------------------|
C|---------------------------------------------------------------------------|

D|---------------------------------------------------------------------------|
A|---------------------------------------------------------------------------| Play through
F|-10101010101010--121212--141414-10101010101010--99999----------------------| Chorus twice.
C|--x-x-x-x-x-x-x---x-x-x---x-x-x--x-x-x-x-x-x-x--xxxxx----------------------|
G|--8-8-8-8-8-8-8--101010--121212--8-8-8-8-8-8-8--77777----------------------|
C|---------------------------------------------------------------------------|

Outro
D|---------------------------------------------------------------------------|
A|---------------------------------------------------------------------------|
F|-------------------------------77777777777---1010101010101010--------------|
C|--8888888888--10101010101010---77777777777---1010101010101010--------------|
G|--8888888888--10101010101010---55555555555----8-8-8-8-8-8-8-8--------------|
C|--8888888888--10101010101010-----------------------------------------------|

D|---------------------------------------------------------------------------|
A|---------------------------------------------------------------------------|
F|---------------------------------------------------------------------------|
C|--8888888888--10-----------------------------------------------------------|
G|--8888888888--10-----------------------------------------------------------|
C|--8888888888--10-----------------------------------------------------------|


Comment and Rate. Any Corrections? Let me know.
Related for My Life For Hire tab