Song name
# A B C D E F G H I J K L M N O P Q R S T U V W X Y Z

A Day To Remember - Another Song About The Weekend tab

Here's the tabs for Another Song About the Weekend.
I had a couple people ask for them so here you go.
Figure out the strumming throughout the whole thing
If something doesn't make sense (which it might not cuz i'm
new at this,)
You can see my cover of it on youtube:
http://www.youtube.com/watch?v=XjQSB18Jn-k

.= palm mute


1st guitar:
strum multiple times
D|-----|
A|-----|
F|--7--|
C|--x--| 
G|--5--|
C|-----|

2nd guitar comes in with this:
D|-----|
A|-----|
F|-----| 
C|--0--|
G|--0--|
C|--0--|

(0:07) 
D|--------------|
A|--------------|
F|--------------|
C|--7-5-4-2--0--|
G|--7-5-4-2--0--|
C|--7-5-4-2--0--|
    . . . .

2nd guitar instead of ending with open 0 it's the 7x5 
like at the beginning

(0:19) 
pickslide and then (figure out strumming):
D|--------------|
A|--------------|
F|--------------|
C|--0--5--0--7--|
G|--0--5--0--7--|
C|--0--5--0--7--|

(0:32)
D|-------------------------------------|
A|-------------------------------------|
F|--4---4/7----3---3/7-----------------|
C|--x---x/x----x---x/x-----5--4--5--7--|
G|--2---2/5----1---1/5-----5--4--5--7--|
C|-------------------------5--4--5--7--|

Chorus:

1st guitar
D|-----------------|
A|-----------------|
F|-----------------|
C|--0--5--9--7--5--|
G|--0--5--9--7--5--|
C|--0--5--9--7--5--|

2nd guitar
D|----------------------------------------|
A|----------------------------------------|
F|--7----9--11----------14----12--11---5--|
C|--x----x--x---(2x)----x-----x---x----x--|
G|--5----7--9-----------12----10--9----7--|
C|----------------------------------------|
{end chorus}


D|-------------|
A|-------------|
F|--7----------|
C|--x---7-5-4-2| 
G|--5---7-5-4-2|
C|------7-5-4-2|
        . . . .


(1:10)
D|------------------------------------------------------------|
A|------------------------------------------------------------|
F|------------------------------------------------------------|
C|--00-000-000-000-055-555-555-555-500-000-000-000-077-777-7-7|
G|--00-000-000-000-055-555-555-555-500-000-000-000-077-777-7-7|
C|--00-000-000-000-055-555-555-555-500-000-000-000-077-777-7-7|
    .. ... ... ... ... ... ... ... ... ... ... ... ... ... .

D|-------------------------------------|
A|-------------------------------------|
F|--4---4/7----3---3/7-----------------|
C|--x---x/x----x---x/x-----5--4--5--7--| (2x)
G|--2---2/5----1---1/5-----5--4--5--7--|
C|-------------------------5--4--5--7--|

(Chorus again)

Breakdown (2:11)
D|-------------------------------------------------|
A|-------------------------------------------------|
F|--9/11-\9----------------------------------------|
C|--x/x--\x---0000000000000000-555555555555555555--|
G|--7/9--\7---0000000000000000-555555555555555555--|
C|------------0000000000000000-555555555555555555--|


End breakdown on
1st guitar:
D|-----|
A|-----|
F|-----|
C|--0--|
G|--0--|
C|--0--|

2nd guitar:
D|-----|
A|-----|
F|--7--|
C|--x--|
G|--5--|
C|-----|

I fell asleep... (just the bass)

(2:46) HAVE FAITH IN ME!
[pickslide]

(chorus)

(3:23)
D|-----|   
A|-----|
F|--7--|
C|--x--|
G|--5--|
C|-----|

2nd guitar joins in:
D|-----|
A|-----|
F|-----|
C|--0--|
G|--0--|
C|--0--|

And end it with:

1st guitar:
D|--------------|
A|--------------|
F|--------------|
C|--7-5-4-2--0--|
G|--7-5-4-2--0--|
C|--7-5-4-2--0--|
    . . . .

2nd guitar:
D|------------------|
A|------------------|
F|--14-12-11-9---7--|
C|--x--x--x--x---x--|
G|--12-10-9--7---5--|
C|------------------|

And that's the song. any Q's feel free to email me
sharpe_kyle@yahoo.com
please rate/comment or whatever!
enjoy!
-K







Tap to rate this tab
# A B C D E F G H I J K L M N O P Q R S T U V W X Y Z