Song name
# A B C D E F G H I J K L M N O P Q R S T U V W X Y Z

A Day To Remember - Downfall Of Us All tab

I found this song on youtube.com for further info but in tabulature 
this is my first one this. this is pretty much right! better 
than the other ones. 

to contact me its stefangoins@yahoo.com -enjoy! 







D|---------------------------------------------------------------------|
A|---------------------------------------------------------------------|
F|---------------------------------------------------------------------| x2
C|-00000000-00-00--0-0-0--00-00--99999999-99-99--55-55-55--------------|
G|-00000000-00-00--0-0-0--00-00--99999999-99-99--55-55-55----4---------|
C|-00000000-00-00--0-0-0--00-00--99999999-99-99--55-55-55-5h7----------|
   
D|-----------------------|
A|-----------------------|
F|-----------------------|
C|--0----9------5--------| x2
G|--0----9------5--------|
C|--0----9------5--------|

D|----------------------------------------|
A|----------------------------------------|
F|----------------------------------------|
C|--9------8------5-----------------------| x2  2nd time don't play 0024220 
G|--9-x6---8-x8---5x8---------------------|              
C|--9------8------5------0-0-2-4-2-2-4-0--| 


D|----------------------------------------|
A|----------------------------------------|
F|----------------------------------------|
C|-0-0-0-2-0-0-0-5-0-0-0-7-7-7-7-7-7------|\
G|-0-0-0-2-0-0-0-5-0-0-0-7-7-7-7-7-7------| \
C|-0 0-0-2-0-0-0-5-0-0-0-7-7-7-7-7-7------|  \
                                              \ x2
D|----------------------------------------|   /
A|----------------------------------------|  /
F|----------------------------------------| /
C|-0-0-0-2-0-0-5-5-5-5-5-5----------------|/
G|-0-0-0-2-0-0-5-5-5-5-5-5----------------|
C|-0-0-0-2-0-0-5-5-5-5-5-5----------------|


D|----------------------------|
A|----------------------------|
F|----------------------------|  
C|-2----5---------------------|
G|-2-x8-5-x2------------------|
C|-2----5-------------~-------|


D|---------------------------------------------------------------------|
A|---------------------------------------------------------------------|
F|---------------------------------------------------------------------| x2
C|-00000000-00-00--0-0-0--00-00--99999999-99-99--55-55-55--------------|
G|-00000000-00-00--0-0-0--00-00--99999999-99-99--55-55-55----4---------|
C|-00000000-00-00--0-0-0--00-00--99999999-99-99--55-55-55-5h7----------|

pickslide!

D|-----------------------|
A|-----------------------|
F|-----------------------|
C|--0----9------5--------| x2
G|--0----9------5--------|
C|--0----9------5--------| 

D|--------------------------------------------------------------------|
A|--------------------------------------------------------------------|
F|--------------------------------------------------------------------|
C|-0-0----4h5h4-----4h5h4-----7h4--0-0-4h5-----4h5-----4h5-----0h2----|x2
G|--------------------------------------------------------------------|
C|--------------------------------------------------------------------|


D|----------------------------------------|
A|----------------------------------------|
F|----------------------------------------|
C|--9------8------5-----------------------|  
G|--9-x6---8-x8---5x8---------------------|              
C|--9------8------5------0-0-2-4-2-2-4-0--|


D|----------------------------------------|
A|----------------------------------------|
F|----------------------------------------|
C|--99-9-99-9--8--------------------------|
G|--99-9-99-9--8--------------------------|
C|--99-9-99-9--8--------------------------|



D|----------------------------------------|
A|----------------------------------------|
F|----------------------------------------|
C|-0-0-0-2-0-0-0-5-0-0-0-7-7-7-7-7-7------|\
G|-0-0-0-2-0-0-0-5-0-0-0-7-7-7-7-7-7------| \
C|-0 0-0-2-0-0-0-5-0-0-0-7-7-7-7-7-7------|  \
                                              \ x2
D|----------------------------------------|   /
A|----------------------------------------|  /
F|----------------------------------------| /
C|-0-0-0-2-0-0-5-5-5-5-5-5----------------|/
G|-0-0-0-2-0-0-5-5-5-5-5-5----------------|
C|-0-0-0-2-0-0-5-5-5-5-5-5----------------|


D|----------------------------|
A|----------------------------|
F|----------------------------|  
C|-2----5---------------------|
G|-2-x8-5-x8------------------|
C|-2----5---------------------|


D|----------------------------------------------------------|
A|----------------------------------------------------------|
F|----------12-11--------|--------------------------7----9--|  
C|----0------x--x----x2--|--5------12-11-----7-7-7--x----x--|x2
G|----0-x4--10--9--------|--5-x8----x--x-----7-7-7--5----7--|
C|----0------------------|--5------10--9-----7-7-7----------|


D|----------------------------------------------------------|
A|----------------------------------------------------------|
F|----------12-11---------|---------------------------------|  
C|----0------x--x----x2---|--5------12-11-----7-7-7---------|x2
G|----0-x8--10--9---------|--5-x8----x--x-----7-7-7---------|
C|----0-------------------|--5------10--9-----7-7-7---------|

D|----------------------------------------|
A|----------------------------------------|
F|----------------------------------------|
C|----------------------------------------|
G|----------------------------------------|
C|-0 0-0-2-0-0-0-5-0-0-0-7-7-7-7-7-7------|

D|----------------------------------------|
A|----------------------------------------|
F|----------------------------------------|
C|----------------------------------------|
G|----------------------------------------|
C|-0 0-0-2-2-2-2-2-5-5-5-5-5-5------------|

D|----------------------------------------|
A|----------------------------------------|
F|----------------------------------------|
C|-0-0-0-2-0-0-0-5-0-0-0-7-7-7-7-7-7------|\
G|-0-0-0-2-0-0-0-5-0-0-0-7-7-7-7-7-7------| \
C|-0 0-0-2-0-0-0-5-0-0-0-7-7-7-7-7-7------|  \
                                              \ x3
D|----------------------------------------|   /
A|----------------------------------------|  /
F|----------------------------------------| /
C|-0-0-0-2-0-0-5-5-5-5-5-5----------------|/
G|-0-0-0-2-0-0-5-5-5-5-5-5----------------|
C|-0-0-0-2-0-0-5-5-5-5-5-5----------------|

D|------------------------------------|
A|------------------------------------|
F|------------------------------------|  
C|-2----5------2-----5---hold end-----| 
G|-2-x8-5-x8---2-x8--5----------------|
C|-2----5------2-----5----------------|

D|---------------------------------------------------------------------|
A|---------------------------------------------------------------------|
F|---------------------------------------------------------------------| x2
C|-00000000-00-00--0-0-0--00-00--00000000-00-00--00-00-00--------------|
G|-00000000-00-00--0-0-0--00-00--00000000-00-00--00-00-00--------------|
C|-00000000-00-00--0-0-0--00-00--00000000-00-00--00-00-00--------------|
   



















 












 

             





Tap to rate this tab
# A B C D E F G H I J K L M N O P Q R S T U V W X Y Z