Song name
# A B C D E F G H I J K L M N O P Q R S T U V W X Y Z

A Day To Remember - The Downfall Of Us All tab

Artist: A Day To Remember
Song: The Downfall Of Us All
Tuning: Dropped C (CGCFAD)
Tabbed by: Entite


This is my first tab but I think it's pretty much 90+% accurate.
I play it this way atleast and it sounds perfect. 
If there is any mistakes feel free to leave a comment or send me a PM on the forum =)

DuhDuhDuhDuhDuhDuhDuhDuh DuhDuh DuhDuh Duh Duh Duh DuhDuh DuhDuh 
DuhDuhDuhDuhDuhDuhDuhDuh DuhDuh DuhDuh DuhDuh Let's gooo

00:07-00:21
D|-----------------------------------------------------------------|
A|-----------------------------------------------------------------|
F|-----------------------------------------------------------------|
C|-----------------------------------------------------------------|
G|-00000000-00-00--0-0-0-00-00--99999999-99-99-55-55-55----4-------|
C|-00000000-00-00--0-0-0-00-00--99999999-99-99-55-55-55-5h7--------|
   ........ .. ..  . . . .. ..  ........ .. .. .. .. ..
D|-----------------------------------------------------------------|
A|-----------------------------------------------------------------|
F|-----------------------------------------------------------------|
C|-----------------------------------------------------------------|
G|-00000000-00-00--0-0-0-00-00--99999999-99-99-55-55-55-5555-------|
C|-00000000-00-00--0-0-0-00-00--99999999-99-99-55-55-55-5555-------|
   ........ .. ..  . . . .. ..  ........ .. .. .. .. .. ....

00:22-00:35
D|---------------------------------|
A|---------------------------------|
F|---------------------------------|
C|---0~--9~--5~----0~-----9~--5~---|
G|---0~--9~--5~----0~-----9~--5~---|
G|---0~--9~--5~----0~-----9~--5~---|

00:36-00:47
D|------------------------------------------------------------------|
A|------------------------------------------------------------------|
F|------------------------------------------------------------------|
C|-99999998--8888888-55555555-------------------99999998--5555------|
G|-99999998--8888888-55555555-------------------99999998--5555------|
C|-99999998--8888888-55555555--0-0-2-4-2-2-0-0--99999998--5555------|
                                                          ....
00:48-01:01
D|-------------------------------------------|
A|-------------------------------------------|
F|-------------------------------------------|
C|-000-22-00-55-00-77777-000-2222-555555555--| x2
G|-000-22-00-55-00-77777-000-2222-555555555--|
C|-000-22-00-55-00-77777-000-2222-555555555--|

01:02-01:04
D|-------------|
A|-------------|
F|-------------|
C|-22222222-55-|
G|-22222222-55-|
C|-22222222-55-|

01:06-01:20
D|-----------------------------------------------------------------|
A|-----------------------------------------------------------------|
F|-----------------------------------------------------------------|
C|-----------------------------------------------------------------|
G|-00000000-00-00--0-0-0-00-00--99999999-99-99-55-55-55----4-------|
C|-00000000-00-00--0-0-0-00-00--99999999-99-99-55-55-55-5h7--------|
   ........ .. ..  . . . .. ..  ........ .. .. .. .. ..
D|-----------------------------------------------------------------|
A|-----------------------------------------------------------------|
F|-----------------------------------------------------------------|
C|-----------------------------------------------------------------|
G|-00000000-00-00--0-0-0-00-00--99999999-99-99-55-55---------------|
C|-00000000-00-00--0-0-0-00-00--99999999-99-99-55-55--[PickSlide]--|
   ........ .. ..  . . . .. ..  ........ .. .. .. ..

01:21-01:27
D|---------------|
A|---------------|
F|---------------|
C|---0~--9~--5~--|
G|---0~--9~--5~--|
G|---0~--9~--5~--|


01:28-01:35
D|---------------------------------------------------------| 
A|---------------------------------------------------------| 
F|---------------------------------------------------------| 
C|-00-4h5-00-5p4-00-7p4-00-5p4-00-4h5-00-5p4-00-2h4-00-4p2-| 
G|---------------------------------------------------------| 
C|---------------------------------------------------------| 
                                                              Lead
D|---------------------------------------------------------|
A|---------------------------------------------------------|
F|---------------------------------------------------------|
C|-00-4h5-00-5p4-00-7p4-00-5p4-00-4h5-00-5p4-00-2h4-4------|
G|---------------------------------------------------------|
C|---------------------------------------------------------|            
                                                             
D|--------------------------------------|                    
A|--------------------------------------|                    
F|--------------------------------------|                    
C|-000------000------999--999--555--555-|  Rhythm
G|-000------000------999--999--555--555-|                    
C|-000------000------999--999--555--555-|                    
   ...      ...      ...  ...  ...  ...

01:36-01:45
D|--------------------------------------------------------------|
A|--------------------------------------------------------------|
F|--------------------------------------------------------------|
C|-99999998--8888888-55555555-------------------99-9-99-9-8-----|
G|-99999998--8888888-55555555-------------------99-9-99-9-8-----|
C|-99999998--8888888-55555555--0-0-2-4-2-2-0-0--99-9-99-9-8-----|

01:46-02:00
D|-------------------------------------------|
A|-------------------------------------------|
F|-------------------------------------------|
C|-000-22-00-55-00-77777-000-2222-555555555--| x2
G|-000-22-00-55-00-77777-000-2222-555555555--|
C|-000-22-00-55-00-77777-000-2222-555555555--|

02:01-02:04
D|-------------------|
A|-------------------|
F|-------------------|
C|-22222222-55555555-|
G|-22222222-55555555-|
C|-22222222-55555555-|

02:05-02:19
D|----------------------------------------------------------------|
A|----------------------------------------------------------------|
F|----------------------------------------------------------------| [x2]
C|-0-0-0-0--------0-0-0--------5-5-5-5--------7-7-7---------------|
G|-0-0-0-0--10p9--0-0-0--10p9--5-5-5-5--10p9--7-7-7--10-10p9------|
C|-0-0-0-0--------0-0-0--------5-5-5-5--------7-7-7---------------|

02;20-02:34
D|-------------------------------------------------------|
A|-------------------------------------------------------|
F|-------------------------------------------------------| [x2]
C|-------------------------------------------------------|
G|------------4h5----------4h5------------4h5------------|
C|-000000000------0000000------555555555------77-77-7-77-|
   .........      .......      .........      .. .. . ..

02:35-02:40
D|-------------------------------------------|
A|-------------------------------------------|
F|-------------------------------------------|
C|-------------------------------------------|
G|-------------------------------------------|
C|-000-22-00-55-00-77777--000-2222-555555555-|

02:41-03:03
D|-------------------------------------------|
A|-------------------------------------------|
F|-------------------------------------------|
C|-000-22-00-55-00-77777-000-2222-555555555--| x3
G|-000-22-00-55-00-77777-000-2222-555555555--|
C|-000-22-00-55-00-77777-000-2222-555555555--|

03:04-03:10
D|--------------------------------|
A|--------------------------------|
F|--------------------------------|
C|-22222222-55555555-22222222-5~--|
G|-22222222-55555555-22222222-5~--|
C|-22222222-55555555-22222222-5~--|

03:11-03:26
D|-----------------------------------------------------------|
A|-----------------------------------------------------------|
F|-----------------------------------------------------------|
C|-----------------------------------------------------------| x2
G|-00000000-00-00--0-0-0-00-00--00000000-00-00-00-00-0-00-00-|
C|-00000000-00-00--0-0-0-00-00--00000000-00-00-00-00-0-00-00-|
   ........ .. ..  . . . .. ..  ........ .. .. .. .. . .. ..


. = Palm Mute
h = Hammeron
p = Pull Off
~ = Let Ring
Tap to rate this tab
 
# A B C D E F G H I J K L M N O P Q R S T U V W X Y Z