Song name
# A B C D E F G H I J K L M N O P Q R S T U V W X Y Z

A Day To Remember - Show Em The Ropes tab

----------------------------------------------------------
          Show Em' The Ropes - A Day To Remember
----------------------------------------------------------
Tabbed by: Kristyn Lee
Email: spot_the_village_loony_836@hotmail.com

Tuning: Drop C

Intro/Verse
Guitar 1
D|----------------------------------8---------------|
A|---10-10-10-11-10-8-6h8h10-8-10-6---6h8-8-8h10----|
F|-7------------------------------------------------|
C|--------------------------------------------------|
G|--------------------------------------------------|
C|--------------------------------------------------|
                                                    |x2
D|------------8-----------------------8-------------|
A|--8h10-10-6---6h8-8-8h10--8h10-10-6---6h8-8-8h10--|
F|--------------------------------------------------|
C|--------------------------------------------------|
G|--------------------------------------------------|
C|--------------------------------------------------|

Intro/verse
guitar 2
D|---------------------------------------|
A|---------------------------------------|
F|---------------------------------------|x2
C|-----------------------------55555555--|
G|--00000000-88888888-33333333-33333333--|
C|--00000000-88888888-33333333-----------|
both guitars
D|-------------------------------|
A|-------------------------------|
F|---7~~--10~~-------------------|
C|---x----x----------------------|
G|---5~~--8~~---8\\0~--0~--------|
C|--------------8\\0~--0~--------|

verse
D|----------------------|   |----------------------|
A|----------------------|   |----------------------|
F|----------------------|x2 |----------------------|
C|----------------------|   |----------------------|
G|--0-000000-000000~----|   |--5-555555-5555555~---|
C|--0-000000-000000~----|   |--5-555555-5555555~---|
      ...... .....               ...... ......

D|---------------------------------|
A|---------------------------------|
F|---------------------------------|
C|---------------------------------|
G|--7p0-8p0-10p0-8p0-7h8p7h8h10*---|
C|---------------------------------|

D|----------------------|   |----------------------|
A|----------------------|   |----------------------|
F|----------------------|x2 |----------------------|
C|----------------------|   |----------------------|
G|--0-000000-000000~----|   |--5-555555-5555555~---|
C|--0-000000-000000~----|   |--5-555555-5555555~---|
      ...... .....               ...... ......
D|----------------------------------|
A|----------------------------------|
F|----------------------------------|
C|----------------------------------|
G|--7p0-8p0-10p0-8p0-7h8p7\5--------|
C|---------------------------8\\\0--|

Chorus 
i cant hear the lead riff :/  sorry
D|-------------------------------------------------------------|
A|-------------------------------------------------------------|
F|-------------------------------------------------------------|x2
C|--777777777777-333333333333----------------------------------|
G|--555555555555-111111111111-555555555555-888888-101010101010-|
C|----------------------------555555555555-888888-101010101010-|
post-chorus   "lets start over..."
D|----------------------------------------|
A|----------------------------------------|
F|----------------------------------------|x2
C|----------------------------------------|
G|--00000000-88888888-33333333-33332222---|
C|--00000000-88888888-33333333-33332222---|

Repeat verse
Repeat chorus & post chorus


D|----------------------|
A|----------------------|
F|----------------------|
C|----------------------|
G|--0~~~--00--0~~~--0---|
C|--0~~~--00--0~~~--0---|
          ..        .
breakdown
D|-----------------------------------------|
A|-----------------------------------------|
F|-----------------------------------------|x4
C|-----------------------------------------| 
G|--00000-0-0-00000000-00000-0-0-000-000---|
C|--00000-0-0-00000000-00000-0-0-000-000---|
    .....     ........ .....     ... ...


| .  palm mute
| /  slide up
| \  slide down
| h  hammer-on
| p  pull-off
| ~  vibrato
| *  harmonic
| x  Mute note
===========================================================
Tap to rate this tab
# A B C D E F G H I J K L M N O P Q R S T U V W X Y Z