Song name
# A B C D E F G H I J K L M N O P Q R S T U V W X Y Z

A Day To Remember - Welcome To The Family tab

Artist: A Day To Remember
Song: Welcome to the Family
Album: Homesick

Tuning: Drop A# (Bb F Bb Eb G C)


##Intro##
C--|-------------------|
G--|-------------------|
Eb-|-7--10-9-10-14-12--|
Bb-|-x--x--x-x--x--x---|
F--|-5--8--7-8--12-10--|
Bb-|-------------------|

##Verse## (Part 1) x2
C--|----------------------------------------------------|
G--|----------------------------------------------------| 
Eb-|--------------------------------14/12--12/10--9/10--|  
Bb-|--------------------------------x--x---x--x---x-x---|   
F--|-00---00000---000-0-00---0000---12/10--10/8---7/8---|  
Bb-|-00---00000---000-0-00---0000-----------------------| 
 pm  ..   .....   ... . ..

(Part 2) x2
C--|----------------------------------------------------|
G--|----------------------------------------------------| 
Eb-|----------------------------------------------------|  
Bb-|----------------------------------------------------|   
F--|----7-8----4-7----7-10p7----7-8---4-----------------|  
Bb-|-00--0--00--0--00--0-----00--0--00---8888-5555------| 
 pm  ..  .  ..  .  ..  .     ..  .  ..

##Chorus## x2
C--|----------------------------------------------------------------------|
G--|----------------------------------------------------------------------|
Eb-|----------------------------------------------------------------------|
Bb-|-8888888888888888-0000000000000000-3333333333333333-5555555555555555--|
F--|-8888888888888888-0000000000000000-3333333333333333-3333333333333333--|
Bb-|-8888888888888888-0000000000000000-3333333333333333-------------------|

C--|----------------------|
G--|----------------------|
Eb-|----------------------|
Bb-|----------------------|
F--|-------------000-0-0--|
Bb-|-00--00000---000-0-0--|
 pm              ... . .

Repeat Verse
Repeat Chorus

##Beginning of Breakdown##
C--|-------------------------------|
G--|-------------------------------|
Eb-|-7-10-9-6-3-2---7-10-9-12-3-2--|
Bb-|-x-x--x-x-x-x---x-x--x-x--x-x--|
F--|-5-8--7-4-1-0---5-8--7-10-1-0--|
Bb-|-------------------------------|

##Breakdown##
C--|-----------------------------------------------------------|
G--|-----------------------------------------------------------|
Eb-|-----------------------------------------------------------|
Bb-|-----------------------------------------------------------|
F--|-000000--00-00--0000-00--000000--00--0000000000---MOVE!!!--|
Bb-|-000000--00-00--0000-00--000000--00--0000000000------------|
 pm  ......  .. ..  .... ..  ......  ..  ..........

C--|-----------------------------------------------------------|
G--|-----------------------------------------------------------|
Eb-|-----------------------------------------------------------|
Bb-|-------------------------------------------------------0~~~|
F--|-000000~~00~00~~0000~00~~000000~~00~~0000000000000000--0~~~|
Bb-|-000000~~00~00~~0000~00~~000000~~00~~0000000000000000--0~~~|
 pm  ......  .. ..  .... ..  ......  ..  ................

##Last Chorus##
C--|------------------------------------------------------------------------|
G--|------------------------------------------------------------------------|
Eb-|------------------------------------------------------------------------|
Bb-|-8888888888888888-0000000000000000-3333333333333333-5555555555555555--0~|
F--|-8888888888888888-0000000000000000-3333333333333333-3333333333333333--0~|
Bb-|-8888888888888888-0000000000000000-3333333333333333-------------------0~|

End.

Now this is the way that I play the song
and it sounds right to me.

If I made any mistakes, feel free to e-mail me.
zck_harvey@yahoo.com
Tap to rate this tab
# A B C D E F G H I J K L M N O P Q R S T U V W X Y Z