Song name
# A B C D E F G H I J K L M N O P Q R S T U V W X Y Z

A Day To Remember - My Life For Hire tab

hey guys i'm jimmy, i'm 13 and i've been playing guitar for 7 years now. this is my 
tab, hope you like it =) sorry i couldnt really tab the strumming so you'll need to listen 
the song to get it.

Guitar 1 - intro
C#|------------------------------------------||
G#|-------------------------3-3-3-3--1-1-0-0-||
E |-9-9-9-9--7--9-9-9-9--7--5-5-5-5--2-2-2-2-|| X2
B |-9-9-9-9--7--9-9-9-9--7--5-5-5-5--2-2-2-2-||
F#|-7-7-7-7--5--7-7-7-7--5--3-3-3-3--0-0-0-0-||
B |------------------------------------------||

Guitar 2 - Intro - Make sure theres gooood overdrive!
C#|-----------------------------------||
G#|------------------7-7-7-7--8-8-8-8-||
E |-9-9-9-7-9-9-9-9--x-x-x-x--x-x-x-x-|| x2
B |------------------4-4-4-4--5-5-5-5-||
F#|-----------------------------------||
B |-----------------------------------||

Guitar 1 - Verse ( Guitar two plays the same as guitar one, makes it sound heavier. )
C#|---------------------------------------------------------------------||
G#|---------------------------------------------------------------------||
E |---------------------------------------------------------------------||
B |---------------------------------------------------------------------||x2
F#|---------------------------------------------------------------------||
B |-2--2-2-2--2--2-2-2--2-2-2-2-2-2--10--10-10-10--7--7-7-7--7-7-7-7-7-7||

Guitar 1 - END PART OF VERSE is Pretty much the same as the intro, but theres different 
make sure you listen to the song to get the strumming!!
C#|------------------------------------------||
G#|-------------------------3-3-3-3--1-1-0-0-||
E |-9-9-9-9--7--9-9-9-9--7--5-5-5-5--2-2-2-2-|| X2
B |-9-9-9-9--7--9-9-9-9--7--5-5-5-5--2-2-2-2-||
F#|-7-7-7-7--5--7-7-7-7--5--3-3-3-3--0-0-0-0-||
B |------------------------------------------||

Guitar 2 - END PART OF VERSE
C#|-----------------------------------||
G#|------------------7-7-7-7--8-8-8-8-||
E |-9-9-9-7-9-9-9-9--x-x-x-x--x-x-x-x-|| x2
B |------------------4-4-4-4--5-5-5-5-||
F#|-----------------------------------||
B |-----------------------------------||

Guitar 1 - PreChorus
C#|----------------------------------------||
G#|----------------------------------------||
E |-5-5-5-5--7-7-7-7--9-9-9-9--12-12-12-12-|| Continue.
B |-5-5-5-5--7-7-7-7--9-9-9-9--12-12-12-12-||
F#|-3-3-3-3--5-5-5-5--7-7-7-7--10-10-10-10-||
B |----------------------------------------||

C#|--------------------------||
G#|--------------------------||
E |-5-5-5-5--7-7-7-7-8-8-8-8-||
B |-5-5-5-5--7-7-7-7-8-8-8-8-||
F#|-3-3-3-3--5-5-5-5-6-6-6-6-||
B |--------------------------||

Guitar 2 - PreChorus
C#|---------------------------------------------------------------------||
G#|-8-8-8-8--10-10-10-10--12-12-12-12-7-7-7-7--15-15-15-15--12-12-12-12-||
E |-x-x-x-x--x--x--x--x---x--x--x--x--x-x-x-x--x--x--x--x---x--x--x--x--||
B |-5-5-5-5--7--7--7--7---9--9--9--9--4-4-4-4--12-12-12-12--9--9--9--9--||
F#|---------------------------------------------------------------------||
B |---------------------------------------------------------------------||

C#|----------------------------------||
G#|-8-8-8-8--10-10-10-10-11-11-11-11-||
E |-x-x-x-x--x--x--x--x--x--x--x--x--||
B |-5-5-5-5--7--7--7--7--8--8--8--8--||
F#|----------------------------------||
B |----------------------------------||

Sorry guys thats all i got for now, working out the chorus and i'll have it up soon :)
Tap to rate this tab
 
# A B C D E F G H I J K L M N O P Q R S T U V W X Y Z