Song name
# A B C D E F G H I J K L M N O P Q R S T U V W X Y Z

A Day To Remember - You Shouldve Killed Me When You Had The Chance tab

oight guys
lookin at the tabs already on here they dont really seem to be quite right so i
thought id give it a shot
most of thisll be from my own ears and youtube cos im a lazy arse :D

intro:
D------------------------------------------------------|
A------------------------------------------------------|
F------5--------5----------5---------5------5----------|
C------3-X2-----3-X2-------3-X2------3------3----14/---|
G-5555-5---1111-1-----3333-5----1111-13333-5----14/---|
C------------------------------------------------14/---|
  ....     ....       ....      ....   ....

verse:
D--------------------------------------------------|
A--------------------------------------------------|
F--------------------------------------------------|
C-0-----------00-0--------------8-----------88-10--|
G-0-000000000-00-0-000000000-00-8-888888888-88-10--|
C-0-000000000-00-0-000000000-00-8-888888888-88-10--|
    .........      .........      .........

D-----------------------------------------------------------|
A-----------------------------------------------------------|
F-------------------------------5-----------------5---------|
C--------------7--------0-2-3-2---3-2h3p2-0-2-3-2---3-2h3p2-|
G-101010101010-7-777777-0-----------------0-----------------|
C-101010101010-7-777777-0-----------------0-----------------|
  ............   ......

D------------------------------------|
A------------------------------------|
F-3-------5---------5----------------|
C-3-2-3-2---3-2h3p2-5-3-2-3/5-3-2/3--|
G-1-----------------3----------------|
C------------------------------------|

chorus:
D---------------------------------------------------------|
A---------------------------------------------------------|
F-------------------------------10-10101010101010101010---|
C-5-5555555555-7-8-8888888888-8-8--8-8-8-8-8-8-8-8-8-8----|
G-5-5555555555-7-8-8888888888-8-8--8-8-8-8-8-8-8-8-8-8----|
C-5-5555555555-7-8-8888888888-8---------------------------|

D-------------------------------------------------------------------------|
A-------------------------------------------------------------------------|
F-12121210-101010101010/12121212-9999-------------------------------------|
C-1010108--8-8-8-8-8-8-/10101010-7777-8-8888888888-10-10101010101010101010|
G-1010108--8-8-8-8-8-8-/10101010-7777-8-8888888888-10-10101010101010101010|
C-------------------------------------8-8888888888-10-10101010101010101010|

D----------------------------------------------------------------|
A-----13----11----10---------------------------------------------|
F-1010--1010--1010--101010---------------------------------------|
C-------------------------14/-0-000-000000000-8-888-8888888888---|
G-------------------------14/-0-000-000000000-8-888-8888888888---|
C-------------------------14/-0-000-000000000-8-888-8888888888---|

D---------------------------------------------------------|
A---------------------------------------------------------|
F--------------------------------101010101010101010101010-|
C-10-101010-10101010101010101010-8-8-8-8-8-8-8-8-8-8-8-8--|
G-10-101010-10101010101010101010-8-8-8-8-8-8-8-8-8-8-8-8--|
C-10-101010-10101010101010101010--------------------------|

D-------------------------------------------------------------|
A-------------------------------------------------------------|
F-17171717/1515151515151515/14141414-10-10101010101010101010--|
C-15151515/1313131313131313/12121212-8--8-8-8-8-8-8-8-8-8-8---|
G-15151515/1313131313131313/12121212-8--8-8-8-8-8-8-8-8-8-8---|
C-------------------------------------------------------------|

D---------------------------|
A---------------------------|
F--12-121212121212-9-999999-|
C--10-101010101010-7-777777-|
G--10-101010101010-7-777777-|
C---------------------------|

Verse 2:
D---------------------------------------|
A---------------------------------------|
F------------------------------------5--|
C----0--2---3---3-2-2---0--2--3-2-2h3---|
G---------------------------------------|
C--00-00--00--00-0-0--00-00-00----------|
   ....   ..  .. . .  .. .. ..

D----------------------------|
A----------------------------|
F----------------5-----------|
C---2--3--3-3-2h3-----2--2-2-|
G-11-11-11-1-1------33-33-3--|
C----------------------------|
  .. .. .. . .      .. .. .

D---------------------------------------|
A---------------------------------------|
F------------------------------------5--|
C----0--2---3---3-2-2---0--2--3-2-2h3---|
G---------------------------------------|
C--00-00--00--00-0-0--00-00-00----------|
   ....   ..  .. . .  .. .. ..

D---------------------------------------|
A---------------------------------------|
F----------------5----------------------|
C---2--3--3-3-2h3-----2--3--2-3-2h3p2---|
G-11-11-11-1-1------33-33-33-3-3-----31-|
C---------------------------------------|
  .. .. .. . .      .. .. .. . .
D---------------------------------------|
A---------------------------------------|
F------------------------------------5--|
C----0--2---3---3-2-2---0--2--3-2-2h3---|
G---------------------------------------|
C--00-00--00--00-0-0--00-00-00----------|
   ....   ..  .. . .  .. .. ..

D------------------------------------------------|
A------------------------------------------------|
F----------------5-------------------------------|
C---2--3--3-3-2h3-----2--33/5555/3333/2222/3333-|
G-11-11-11-1-1------33-33------------------------|
C------------------------------------------------|
  .. .. .. . .      .. ..

Chorus (finally I get to write a repeat of something, my head hurts)

Breakdown:
D----------------|
A----------------|
F----------------|
C-0--------------|
G-0--------------|
C-0--------------|

D----------------------------|
A----------------------------|
F----5-------------5---------|
C--3----3-3-X2---3----3-3-X2-|
G-5-5----5------1-1----1-----|
C----------------------------|

D----------------------|
A----------------------|
F-o--------------------|
C-o-5555555555555555---|
G--3333333333333333----|
C--5555555555555555----|
     ..............

D--------------------|
A--------------------|
F-------------------o|
C--5555555555555555-o|
G--3333333333333333--|
C--1111111111111111--|
     ..............

Outro:
D--------------------------------------|
A--------------------------------------|
F--------------------------------------|
C-0000000000000000-88-88-88-88-5555-X4-|
G-0000000000000000-88-88-88-88-5555----|
C-0000000000000000-88-88-88-88-5555----|

D---|
A---|
F---|
C-0-|
G-0-|
C-0-|


WOW
that was fun :)
GREAT song
hope the tabs alright
probs some mistakes, i aint so great at these thigns but i felt i might as well give it a go
comment any mistakes you find
enjoy
Tap to rate this tab
# A B C D E F G H I J K L M N O P Q R S T U V W X Y Z