Song name
# A B C D E F G H I J K L M N O P Q R S T U V W X Y Z

A Day To Remember - You Shouldve Killed Me When You Had The Chance tab

Artist: A Day To Remember
Song: You Should've Killed Me When You Had The Chance
Album: For Those Who Have Heart #14 (u will have to use the new version)
tabbed by: necriononguitar
e-mail: tim.rathgen@gmx.de (NO FREAKIN SPAM!)

REAL FANS SUPPORT BANDS BY PURCHASING THEIR CDS!!!!

Tuning: Drop C

Announcement: Since all the other tabs are bs i decided to make my own. i know theres 
someone mocking about every little mistake but this is def the best version and please 
ur own tab if u are dissapointed with this one!

. =palm-muted
~ =hold note
^ =vibrato
b =bend
r =release
p =pull off
h =hammer on


"""Intro"""
D-----------------------------------------------------------|
A-----------------------------------------------------------|
F----------5~-----------5~-----------5~-----------5~--------|
C----------3~-----------3~-----------3~-----------3~--------|
G--5-5-5-5-5~---5-5-5-5-5~---1-1-1-1-1~---1-1-1-1-1~--------|
C-----------------------------------------------------------|
   . . . .      . . . .      . . . .      . . . .

D-----------------------------------------------------------|
A-----------------------------------------------------------|
F----------5~-----------5~-----------5~-----------5~--------|
C----------3~-----------3~-----------3~-----------3~--------|
G--5-5-5-5-5~---5-5-5-5-5~---1-1-1-1-1~---3-3-3-3-3~--------|
C-----------------------------------------------------------|
   . . . .      . . . .      . . . .      . . . .


"""Verse""""  0:20
D-----------------------------------------------------------------------|
A-----------------------------------------------------------------------|
F-----------------------------------------------------------------------|
C--0---------------------------0-0---------------------------0-8--------|
G--0--0-0-0-0-0-0--0-0-0-0-0-0-0-0--0-0-0-0-0-0--0-0-0-0-0-0-0-8--------|
C--0--0-0-0-0-0-0--0-0-0-0-0-0-0-0--0-0-0-0-0-0--0-0-0-0-0-0-0-8--------|
      . . . . . .  . . . . . .      . . . . . .  . . . . . .

D--------------------------------------------------------------------|
A--------------------------------------------------------------------|
F--------------------------------------------------------------------|
C---------------------------8-10--------------10-7----------7--------|
G--8-8-8-8-8-8--8-8-8-8-8-8-8-10--10-10-10-10-10-7--7-7-7-7-7--------|
C--8-8-8-8-8-8--8-8-8-8-8-8-8-10--10-10-10-10-10-7--7-7-7-7-7--------|
   . . . . . .  . . . . . .       .  .  .  .        . . . .


"""Pre-Chorus""""  0:41---------------------------------------|  (standard up-down-strumming)
D-------------------------------------------------------------|
A-------------------------------------------------------------|
F-------------------------------------------------------------|
C---5--------8---------0--------3------------8--------10------|
G---5--x16---8--x16----0--x16---3--x16-------8--x16---10--16--|
C---5--------8---------0--------3------------8--------10------|

0:57
D-------------------------------------------------------|
A-------------------------------------------------------|
F---------17--------15--------14-----------12~\---------|
C---15-15-15--15-15-15--15-15-15--15-15-15-15~\---------|
G-------------------------------------------------------|
C-------------------------------------------------------|
    .  .      .  .      .  .      .  .  .


"""Chorus"""  0:59
D--------------------------------------------------------------------------|
A--------------------------------------------------------------------------|
F--------------------------------------------------------------------------|
C---0---------8--------10---------3---------0--------8--------10-----------|
G---0--x16----8--x16---10--x16----3--x16----0--x16---8--x16---10--x16------|
C---0---------8--------10---------3---------0--------8--------10-----------|


""""Post-Chorus/Interlude"""  1:18
D----------------------------------------------------|
A----------------------------------------------------|
F----------------------------------------------------|
C--------3------2-----3-------3-------2-----2--------|
G----------------------------------------------------|
C---0-0----0-0-----0-----0-0-----0-0----0------------|
    . .    . .     .     . .     . .    .

D--------------------------------------------------|
A--------------------------------------------------|
F---------------------------------------5----------|
C--------3------2----3-------3-----2h3-------------|
G--------------------------------------------------|
C---0-0----0-0----0-----0-0-----0------------------|
    . .    . .    .     . .     .

D----------------------------------------------------|
A----------------------------------------------------|
F----------------------------------------------------|
C-------3-------2------3-------3-------2-----2-------|
G--1-1-----1-1-----1------1-1-----1-1-----1----------|
C----------------------------------------------------|
   . .     . .     .      . .     . .     .

D------------------------------|
A------------------------------|
F------------------------------|
C-------3-------2-----3--------|
G--3-3-----3-3-----3-----------|
C------------------------------|
   . .     . .     .


"""Verse 2"""  1:28
i know theres a 2. guitar playing the high notes 3-4 frets higher but u cant play both 
the same time anyways so who cares...
D--------------------------------------------------|
A--------------------------------------------------|
F--------------------------------------------------|
C--------3------2-----3-------3-------2-2-2--------|
G--------------------------------------------------|
C---0-0----0-0-----0-----0-0-----0-0---------------|
    . .    . .     .     . .     . .

D--------------------------------------------------|
A--------------------------------------------------|
F---------------------------------------5----------|
C--------3------2----3-------3-----2h3-------------|
G--------------------------------------------------|
C---0-0----0-0----0-----0-0-----0------------------|
    . .    . .    .     . .     .

D--------------------------------------------------|
A--------------------------------------------------|
F--------------------------------------------------|
C-------3-------2------3-------3-------2-2-2-------|
G--1-1-----1-1-----1------1-1-----1-1--------------|
C--------------------------------------------------|
   . .     . .     .      . .     . .

D-----------------------------------------------|
A-----------------------------------------------|
F----------------------------------------5------|
C-------3-------2-----3-------3-----2h3---------|
G--3-3-----3-3-----3-----3-3-----3--------------|
C-----------------------------------------------|
   . .     . .     .     . .     .


"""Pre-Chorus"""  1:49
1. Guitar repeats
But theres some sort of 2. guitar play the basic note over and over again
D-----------------------------------------------------------------------|
A-----------------------------------------------------------------------|
F---10-------10/12-12-12-12--9-9-9-9---10--------12------9--------------|
C---x--x56---x-/x--x--x--x---x-x-x-x---x---x16---x--x8---x--x8----------|
G---8--------8-/10-10-10-10--7-7-7-7---8---------10------7--------------|
C-----------------------------------------------------------------------|


"""Chorus""""  2:07
again the 1. guitar stays the same and a 2. guitar comes in
D---------------------------------------------------------------------------|
A(some impros 2 frets higher)-----------------------------------------------|
F----10-----------------------17-------15-------10--------12-----9------10~-|
C----x--x64-------------------x---x8---x--x8----x--x16----x--x8--x--x8--x-~-|
G----8------------------------15-------13-------8---------10-----7------8-~-|
C---------------------------------------------------------------------------|


""""Bridge"""  2:26   guitar 1 ends chorus with ()
D--(0~)-------------0~---------------------0~---------------------|
A--(6~)---------6~------6~-------------6~------6~--------x2-------|
F--(5~)---------------------------------------------5~------------|
C--(3~)-----3~---------------------3~-----------------------------|
G--(5~)-----------------------------------------------------------|
C-----------------------------------------------------------------|


2:43
D-----------------------------5-5-0-0-0-------------------------------------|
A--6-6-6-6-6-6-6-6------6-6-6-6-6-6-6-6--6-6-6-6-6-6-6-6----6-6-6-6-6-6-6-6-|
F--5-5-5-5-5-5-5-5--x3--5-5-5-5-5-5-5-5--5-5-5-5-5-5-5-5-x3-5-5-5-5-5-5-5-5-|
C--3-3-3-3-3-3-3-3------3-3-3-3-3-3-3-3--3-3-3-3-3-3-3-3----3-3-3-3-3-3-3-3-|
G---------------------------------------------------------------------------|
C---------------------------------------------------------------------------|
   . . . . . . . .      . . . . . . . .  . . . . . . . .


"""Outro"""  2:57
Something like this, i cant rly say it cuz of all the distortion
D----------------0~-------------------------0~----------------|
A-------6~---6~-----6~---6~-------6~---6~--------6~--6~-------|
F---5~------------------------5~------------------------------|
C-------------------------------------------------------------|
G-------------------------------------------------------------|
C-------------------------------------------------------------|
(Guitar 2)


3:10   add this to ur playing                    end with
D--------------------------------------------------------|
A--------------------------------------------------------|
F--------------------------------------------------------|
C---12--------888--888--888--888-88-8-8-8-8--------3~----|
G---12--x16---888--888--888--888-88-8-8-8-8---x2---3~----|
C---12--------888--888--888--888-88-8-8-8-8--------3~----|
(Guitar 1)


3:24   (Guitar 2 has been playing some riff  in the background and ends with)
D-------------------------|
A-------------------------|
F---10/12\10~-------------|
C---x-/x-\x-~-------------|
G---8-/10\8-~-------------|
--------------------------|

and thats it... i hope u enjoyed, please rate and comment

Cheers...
Tap to rate this tab
# A B C D E F G H I J K L M N O P Q R S T U V W X Y Z