Song name
# A B C D E F G H I J K L M N O P Q R S T U V W X Y Z

A Day To Remember - If Looks Could Kill tab

---------------------------------------------------------------------------------
                   If Looks Could Kill - A Day To Remember
---------------------------------------------------------------------------------
Tabbed by:Matt Corbin
Email:rdx20-01@hotmail.com

Tuning:Drop C

This is my quick transcription of this tab. There are no tabs for it so i 
decided to try and make one, its my first tab. I'll make improvements if i 
hear i need to.

I should note, this was based of the remastered version from Old Record,
though the differences between them are very minor.

Lead Guitar

INTRO   
             \/ Hold this for a while                                           x4        
d|---------|--------------------------------------------------------------------|
A|---------|--------------------------------------------------------------------|
F|---------|.7~-12--12-12--12-12---10--10-10--10-10---8--8-8--8-8---7--7-7--7-7.|
C|-0-3-6-5-|.x---x---x--x---x--x----x---x--x---x--x---x--x-x--x-x---x--x-x--x-x.|
G|-0-3-6-5-|-5~-10--10-10--10-10----8---8--8---8--8---6--6-6--6-6---5--5-5--5-5-|
C|-0-3-6-5-|--------------------------------------------------------------------|
          

On the 3rd & 4th repeat, change the held note to something like this
(release the palm mute for a note or two or throw in a pinch harmonic at the end)

d|------------------------------------------------|
A|------------------------------------------------|
F|--7-7-7-7-7-7-7-7-7-7-7-7-7-7-7-7-7-7-7-7-7-----|
C|--x-x-x-x-x-x-x-x-x-x-x-x-x-x-x-x-x-x-x-x-x-----|
G|--5-5-5-5-5-5-5-5-5-5-5-5-5-5-5-5-5-5-5-5-5-----|
C|------------------------------------------------|
    . . . . . . . . . . . . . . . . . . . . .  
  

Bridge
Just straight up and down strokes.
d|-----------------------------|
A|-----------------------------|
F|-7-x28--6-x8--7-x16----------|
C|-x------x-----x--------------|
G|-5------4-----5--------------|
C|-----------------------------|

Now repeat the whole thing from the very beginning of the intro!

when you get back here the second time play this


Breakdown

Pt.1                                                  x2
d|----------------------------------------------------|
A|----------------------------------------------------|
F|----------------------------------------------------|
C|----------0-----------0-----------9-----------5-----|
G|--000-000-0---000-000-0---999-999-9---555-555-5-----|
C|--000-000-0---000-000-0---999-999-9---555-555-5-----|
    ... ...     ... ...     ... ...     ... ...

Pt.2
d|-----------------------------------------14--------14------------|
A|--------------------------------------------15--------15---------|
F|-----------------------------------------------14--------14------|
C|-5-5~-----5-5~-----5-5~-----5-5~---------------------------------|
G|-5-5~-----5-5~-----5-5~-----5-5~---------------------------------|
C|-5-5~-----5-5~-----5-5~-----5-5~---------------------------------|
   *        *        *        *

Pt.3                                 X4
d|-----------------------------------|
A|-----------------------------------|
F|-----------------------------------|
C|------7-------7-------7------7-----|
G|-5-55-7-5--55-7-5--55-7-5--5-7-----|
C|-5-55---5--55---5--55---5--5(7)----|
   . ..   .  ..   .  ..   .  *

Ending 1                                                                        
                                                                                x2
d|-------------------------------------|----------------------------------------|
A|-------------------------------------|----------------------------------------|
F|-------------------------------------|.--------------------------------------.|
C|-------------------------------------|.--------------------------------------.|
G|--5555_55-55-5555---5555-55-55-5555--|--\0000-00-00-0000-0000-00-00-0000------|
C|--5555-55-55-5555---5555-55-55-5555--|--\0000-00-00-0000-0000-00-00-0000------|
    .... .. .. ....   .... .. .. ....      .... .. .. .... .... .. .. ....


Now go back and repeat from Pt.2 of the breakdown. Then go to Ending 2 after Pt.3

Ending 2

d|---------------------------------------------------|
A|---------------------------------------------------|
F|---------------------------------------------------|
C|---------------------------------------------------|
G|-0-0-0--0-0-0--0-0-0----0-0-0--0-0-0--0-0-0--------|
C|-0-0-0--0-0-0--0-0-0----0-0-0--0-0-0--0-0-0--------|
   . . .  . . .  . . .    . . .  . . .  . . .

Repeat Ending 2 until fade out





Rhythm Guitar
 
Intro          
             Alot of up/down palm mute chugging here                            x4
d|---------|--------------------------------------------------------------------|
A|---------|--------------------------------------------------------------------|
F|---------|.------------------------------------------------------------------.|
C|-0-3-6-5-|.------------5--5-5--5-5---5--5-5--5-5---5--5-5--5-5---5--5-5--5-5-.|
G|-0-3-6-5-|---5-xalot---5--5-5--5-5---5--5-5--5-5---5--5-5--5-5---5--5-5--5-5--|
C|-0-3-6-5-|---5---------5--5-5--5-5---5--5-5--5-5---5--5-5--5-5---5--5-5--5-5--|
               .

Bridge
Not too sure about this. It's hard to hear.

d|----------------------------------------|
A|----------------------------------------|
F|----------------------------------------|
C|-5------7-----2-----5------2-3-2-5~-----|
G|-5-x16--7-x8--3-x8--5-x12--2-3-2-5~-----|
C|-5------7-----2-----5------2-3-2-5~-----|

Repeat from very beginning


Breakdown

Pt.1                                                  x2
d|----------------------------------------------------|
A|----------------------------------------------------|
F|----------------------------------------------------|
C|----------0-----------0-----------9-----------5-----|
G|--000-000-0---000-000-0---999-999-9---555-555-5-----|
C|--000-000-0---000-000-0---999-999-9---555-555-5-----|
    ... ...     ... ...     ... ...     ... ...

Pt.2
d|--------------------------------------|
A|--------------------------------------|
F|--------------------------------------|
C|-5-5~-----5-5~-----5-5~-----5-5~------|
G|-5-5~-----5-5~-----5-5~-----5-5~------|
C|-5-5~-----5-5~-----5-5~-----5-5~------|
   *        *        *        *

Pt.3                                 X4
d|-----------------------------------|
A|-----------------------------------|
F|-----------------------------------|
C|------7-------7-------7------7-----|
G|-5-55-7-5--55-7-5--55-7-5--5-7-----|
C|-5-55---5--55---5--55---5--5(7)----|
   . ..   .  ..   .  ..   .  *

Ending 1                                                                        
                                                                                x2
d|-------------------------------------|----------------------------------------|
A|-------------------------------------|----------------------------------------|
F|-------------------------------------|.--------------------------------------.|
C|-------------------------------------|.--------------------------------------.|
G|--5555_55-55-5555---5555-55-55-5555--|--\0000-00-00-0000-0000-00-00-0000------|
C|--5555-55-55-5555---5555-55-55-5555--|--\0000-00-00-0000-0000-00-00-0000------|
    .... .. .. ....   .... .. .. ....      .... .. .. .... .... .. .. ....


Now go back and repeat from Pt.2 of the breakdown. Then go to Ending 2 after Pt.3

Ending 2

d|---------------------------------------------------|
A|---------------------------------------------------|
F|---------------------------------------------------|
C|---------------------------------------------------|
G|-0-0-0--0-0-0--0-0-0----0-0-0--0-0-0--0-0-0--------|
C|-0-0-0--0-0-0--0-0-0----0-0-0--0-0-0--0-0-0--------|
   . . .  . . .  . . .    . . .  . . .  . . .

Repeat Ending 2 until fade out







FIN!



************************************

| /   slide up
| \   slide down
| h   hammer-on
| p   pull-off
| ~   vibrato
| +   harmonic
| x   Mute note
| b   Bend
| pb  Pre-bend
| br  Bend release
| pbr Pre-bend release
| brb Bend release bend
| .   palm mute
| *   staccato

************************************
Tap to rate this tab
# A B C D E F G H I J K L M N O P Q R S T U V W X Y Z