Guitaretab - guitar tabs
Song name
# A B C D E F G H I J K L M N O P Q R S T U V W X Y Z

A Day To Remember - The Downfall Of Us All tab

I didn't agree with a lot of the other versions of this and the harmonization so I 
figured I'd give this a go.
This was ripped directly from my powertab. Enjoy!

#----------------------------------PLEASE NOTE---------------------------------#
#This file is the author's own work and represents their interpretation of the #
#song. You may only use this file for private study, scholarship, or research. #
#------------------------------------------------------------------------------#

THE DOWNFALL OF US ALL
As recorded by A Day To Remember
(From the 2009 Album HOMESICK)

Transcribed by Jonathan Rose
	

Words and Music by A Day To Remember

Gtr I (C G C F A D) - 'Guitar 1'
Gtr II (C G C F A D) - 'Guitar 2'
Gtr III (C G C F A D) - 'Overdub'
Gtr IV (C G C F A D) - 'Pickscrape'

 Chant
  Popcore Q=130
  N.C.
 4/4
  Gtrs I, II
  Wx4
|--------||
|--------||
|--------||
|--------||
|--------||
|--------||


 "Let's go!"
  D5
  PM----------------------|       PM------|   PM|
  S S S S S S S S S S E S S E   E E E E S S E S S E
|-----------------------------|---------------------|
|-----------------------------|---------------------|
|-----------------------------|---------------------|
|-----------------------------|---------------------|
|-0-0-0-0-0-0-0-0-0-0---0-0---|---0-0-0-0-0---0-0---|
|-0-0-0-0-0-0-0-0-0-0---0-0---|---0-0-0-0-0---0-0---|


  B5                            G5                N.C.
  PM----------------|   PM|     PM|   PM|   PM--|
  S S S S S S S S S S E S S E   S S E S S E S S E S S E
|-----------------------------|-------------------------|
|-----------------------------|-------------------------|
|-----------------------------|-------------------------|
|-----------------------------|-------------------------|
|-9-9-9-9-9-9-9-9-9-9---9-9---|-5-5---5-5---5-5-------4-|
|-9-9-9-9-9-9-9-9-9-9---9-9---|-5-5---5-5---5-5---5h7---|


  D5
  PM----------------|   PM|       PM------------|
  S S S S S S S S S S E S S E   E E E E S S E S S E
|-----------------------------|---------------------|
|-----------------------------|---------------------|
|-----------------------------|---------------------|
|-----------------------------|---------------------|
|-0-0-0-0-0-0-0-0-0-0---0-0---|---0-0-0-0-0---0-0---|
|-0-0-0-0-0-0-0-0-0-0---0-0---|---0-0-0-0-0---0-0---|


  B5                            G5
  PM----------------|   PM|     PM|   PM|   PM|   PM----|
  S S S S S S S S S S E S S E   S S E S S E S S E S S S S
|-----------------------------|---------------------------||
|-----------------------------|---------------------------||
|-----------------------------|---------------------------||
|-----------------------------|---------------------------||
|-9-9-9-9-9-9-9-9-9-9---9-9---|-5-5---5-5---5-5---5-5-5-5-||
|-9-9-9-9-9-9-9-9-9-9---9-9---|-5-5---5-5---5-5---5-5-5-5-||


 "It's not easy making a.."
  D5                     B5          G5
  Gtr I
   W          W           W           W
|-----------|----------|-----------|-------|
|-----------|----------|-----------|-------|
|-11--------|-7--------|-11--------|-14----|
|--x--------|-x--------|--x--------|--x----|
|--9--------|-5--------|--9--------|-12----|
|-----------|----------|-----------|-------|
|
| Gtr II
|  W          W           W           W
|-----------|----------|-----------|-------|
|-----------|----------|-----------|-------|
|-----------|----------|-----------|-------|
|--0--------|-0--------|--9--------|--5----|
|--0--------|-0--------|--9--------|--5----|
|--0--------|-0--------|--9--------|--5----|


  D5                        B5          G5
   W           +W            W           H     +E   E  E  E
|-----------|-------------|-----------|----------------------||
|-----------|-------------|-----------|----------------------||
|-11--------|-(11)--------|-11--------|-14----(14)-12-12-11--||
|--x--------|--(x)--------|--x--------|--x-----(x)--x--x--x--||
|--9--------|--(9)--------|--9--------|-12----(12)-10-10--9--||
|-----------|-------------|-----------|----------------------||
|
|  W           +W            W           W
|-----------|-------------|-----------|----------------------||
|-----------|-------------|-----------|----------------------||
|-----------|-------------|-----------|----------------------||
|--0--------|--(0)--------|--9--------|--5-------------------||
|--0--------|--(0)--------|--9--------|--5-------------------||
|--0--------|--(0)--------|--9--------|--5-------------------||


 "Oooh!"
  B5                     Bb5             G5
  E E E E E E E +E     E E E E E E E E   E E E E E E E E
|--------------------|-----------------|-----------------|
|--------------------|-----------------|-----------------|
|-7-7-7-7-7-7-7-(7)\-|---7-7-7-7-7-7-7-|-----------------|
|-x-x-x-x-x-x-x------|---x-x-x-x-x-x-x-|-5-5-5-5-5-5-5-5-|
|-5-5-5-5-5-5-5-(5)\-|---5-5-5-5-5-5-5-|-5-5-5-5-5-5-5-5-|
|--------------------|-----------------|-5-5-5-5-5-5-5-5-|
|
| E E E E E E E +E     E E E E E E E E   E E E E E E E E
|--------------------|-----------------|-----------------|
|--------------------|-----------------|-----------------|
|--------------------|-----------------|-----------------|
|-9-9-9-9-9-9-9-(9)\-|---8-8-8-8-8-8-8-|-5-5-5-5-5-5-5-5-|
|-9-9-9-9-9-9-9-(9)\-|---8-8-8-8-8-8-8-|-5-5-5-5-5-5-5-5-|
|-9-9-9-9-9-9-9-(9)\-|---8-8-8-8-8-8-8-|-5-5-5-5-5-5-5-5-|


  N.C.              B5            Bb5   G5
                                        PM----|
  E E E E E E E E   E E E E E E E E   E E E E E E E E
|-----------------|-----------------|-----------------||
|-----------------|-----------------|-----------------||
|-----------------|-7-7-7-7-7-7-7-7-|-----------9-9-9-||
|-----------------|-x-x-x-x-x-x-x-x-|-----------x-x-x-||
|-----------------|-5-5-5-5-5-5-5-5-|---5-5-5-5-7-7-7-||
|-0-0-2-4-2-2-0-0-|-----------------|---5-5-5-5-------||
|
|                                       PM----|
| E E E E E E E E   E E E E E E E E   E E E E E E E E
|-----------------|-----------------|-----------------||
|-----------------|-----------------|-----------------||
|-----------------|-----------------|-----------------||
|-----------------|-9-9-9-9-9-9-9-8-|-----------5-5-5-||
|-----------------|-9-9-9-9-9-9-9-8-|---5-5-5-5-5-5-5-||
|-0-0-2-4-2-2-0-0-|-9-9-9-9-9-9-9-8-|---5-5-5-5-5-5-5-||


   "You'll find me in the.."
    D5       E5    D5    G5      D5    A5
     E  E  E  E  E  E  E  E    E  E  E  E  E  E  E  E
||--------------------------|-------------------------|
||o-------------------------|-------------------------|
||--14-14-14-14-14-14-14-14-|-14-14-14-14-14-14-14-14-|
||---x--x--x--x--x--x--x--x-|--x--x--x--x--x--x--x--x-|
||o-12-12-12-12-12-12-12-12-|-12-12-12-12-12-12-12-12-|
||--------------------------|-------------------------|
|
|    E  E  E  E  E  E  E  E    E  E  E  E  E  E  E  E
||--------------------------|-------------------------|
||o-------------------------|-------------------------|
||--------------------------|-------------------------|
||---0--0--0--2--2--0--0--5-|--5--0--0--7--7--7--7--7-|
||o--0--0--0--2--2--0--0--5-|--5--0--0--7--7--7--7--7-|
||---0--0--0--2--2--0--0--5-|--5--0--0--7--7--7--7--7-|


  D5       E5          G5
   E  E  E  E  E  E  E  E    E  E  E E E E E  E
|-------------------------|----------------------||
|-------------------------|---------------------o||
|-14-14-14-14-14-14-14-12-|-12-11-11-7-7-9-9-11--||
|--x--x--x--x--x--x--x--x-|--x--x--x-x-x-x-x--x--||
|-12-12-12-12-12-12-12-10-|-10--9--9-5-5-7-7--9-o||
|-------------------------|----------------------||
|
|  E  E  E  E  E  E  E  E    E  E  E E E E E  E
|-------------------------|----------------------||
|-------------------------|---------------------o||
|-------------------------|----------------------||
|--0--0--0--2--2--2--2--5-|--5--5--5-5-5-5-5--5--||
|--0--0--0--2--2--2--2--5-|--5--5--5-5-5-5-5--5-o||
|--0--0--0--2--2--2--2--5-|--5--5--5-5-5-5-5--5--||


  E5                G5
  E E E E E E E E    E  E H.
|-----------------|-------------||
|-----------------|-------------||
|-9-9-9-9-9-9-9-9-|-12-12-------||
|-x-x-x-x-x-x-x-x-|--x--x-------||
|-7-7-7-7-7-7-7-7-|-10-10-------||
|-----------------|-------------||
|
| E E E E E E E E    E  E H.
|-----------------|-------------||
|-----------------|-------------||
|-----------------|-------------||
|-2-2-2-2-2-2-2-2-|--5--5-------||
|-2-2-2-2-2-2-2-2-|--5--5-------||
|-2-2-2-2-2-2-2-2-|--5--5-------||


 "..all."
  D5
  Gtrs I, II
  PM----------------------|       PM------|   PM|
  S S S S S S S S S S E S S E   E E E E S S E S S E
|-----------------------------|---------------------|
|-----------------------------|---------------------|
|-----------------------------|---------------------|
|-----------------------------|---------------------|
|-0-0-0-0-0-0-0-0-0-0---0-0---|---0-0-0-0-0---0-0---|
|-0-0-0-0-0-0-0-0-0-0---0-0---|---0-0-0-0-0---0-0---|


  B5                            G5                N.C.
  PM----------------|   PM|     PM|   PM|   PM--|
  S S S S S S S S S S E S S E   S S E S S E S S E S S E
|-----------------------------|-------------------------|
|-----------------------------|-------------------------|
|-----------------------------|-------------------------|
|-----------------------------|-------------------------|
|-9-9-9-9-9-9-9-9-9-9---9-9---|-5-5---5-5---5-5-------4-|
|-9-9-9-9-9-9-9-9-9-9---9-9---|-5-5---5-5---5-5---5h7---|


  D5
  PM----------------|   PM|       PM------------|
  S S S S S S S S S S E S S E   E E E E S S E S S E
|-----------------------------|---------------------|
|-----------------------------|---------------------|
|-----------------------------|---------------------|
|-----------------------------|---------------------|
|-0-0-0-0-0-0-0-0-0-0---0-0---|---0-0-0-0-0---0-0---|
|-0-0-0-0-0-0-0-0-0-0---0-0---|---0-0-0-0-0---0-0---|


  B5                            G5
                                            Gtr IV
  PM----------------|   PM|     PM|   PM|   TPTPTPTPTPTPTPTPTP
  S S S S S S S S S S E S S E   S S E S S E S S S S S S S S a
|-----------------------------|-------------------------------||
|-----------------------------|-------------------------------||
|-----------------------------|-------------------------------||
|-----------------------------|-------------------------------||
|-9-9-9-9-9-9-9-9-9-9---9-9---|-5-5---5-5---xsxsxsxsxsxsxsxsx-||
|-9-9-9-9-9-9-9-9-9-9---9-9---|-5-5---5-5---xsxsxsxsxsxsxsxsx-||


 "I'm gonna need you to.."
  D5                      B5         G5
  Gtrs I, II
  W          +W           W          W
|----------|------------|----------|------||
|----------|------------|----------|------||
|----------|------------|----------|------||
|-0--------|-(0)--------|-9--------|-5----||
|-0--------|-(0)--------|-9--------|-5----||
|-0--------|-(0)--------|-9--------|-5----||


 "Now go tell them we.."
  D5
  Gtr I
  S S S S  S S S S S S S S S S S S   S S S S  S S S S S S S S S S S S
|----------------------------------|----------------------------------|
|----------------------------------|----------------------------------|
|----------------------------------|----------------------------------|
|-0-0-4h5--0-0-5p4-0-0-7p4-0-0-5p4-|-0-0-4h5--0-0-5p4-0-0-2h4-0-0-4p2-|
|----------------------------------|----------------------------------|
|----------------------------------|----------------------------------|
|
| Gtr II
| PM--|                              PM--|
| S S S H.                       S   S S S H.                       S
|----------------------------------|----------------------------------|
|----------------------------------|----------------------------------|
|----------------------------------|----------------------------------|
|----------------------------------|----------------------------------|
|-0-0-0----------------------------|-0-0-0----------------------------|
|-0-0-0----------------------------|-0-0-0----------------------------|


  B5                                G5                      B5
  S S S S S S S S S S S S S S S S   S S S S S S S S S S S S S  S S S
|---------------------------------|----------------------------------||
|---------------------------------|----------------------------------||
|---------------------------------|----------------------------------||
|-0-0-4h5-0-0-5p4-0-0-7p4-0-0-5p4-|-0-0-4h5-0-0-5p4-0-0-2h4-0--0-4p2-||
|---------------------------------|----------------------------------||
|---------------------------------|----------------------------------||
|
| PM--|           PM--|             PM--|           PM--|
| S S S S Q       S S S S Q         S S S S Q       S S S S Q
|---------------------------------|----------------------------------||
|---------------------------------|----------------------------------||
|---------------------------------|----------------------------------||
|---------------------------------|----------------------------------||
|-9-9-9-----------9-9-9-----------|-5-5-5-----------5-5-5---9\-------||
|-9-9-9-----------9-9-9-----------|-5-5-5-----------5-5-5---9\-------||

[ Tab from: http://www.guitaretab.com/a/a-day-to-remember/223696.html ]
 "Oooh!"
  B5            Bb5                   G5
  E E E E E E E E   E E E E E E E E   E E E E E E E E
|-----------------|-----------------|-----------------|
|-----------------|-----------------|-----------------|
|-7-7-7-7-7-7-7-7-|---7-7-7-7-7-7-7-|-----------------|
|-x-x-x-x-x-x-x-x-|---x-x-x-x-x-x-x-|-5-5-5-5-5-5-5-5-|
|-5-5-5-5-5-5-5-5-|---5-5-5-5-5-5-5-|-5-5-5-5-5-5-5-5-|
|-----------------|-----------------|-5-5-5-5-5-5-5-5-|
|
| E E E E E E E E   E E E E E E E E   E E E E E E E E
|-----------------|-----------------|-----------------|
|-----------------|-----------------|-----------------|
|-----------------|-----------------|-----------------|
|-9-9-9-9-9-9-9-8-|---8-8-8-8-8-8-8-|-5-5-5-5-5-5-5-5-|
|-9-9-9-9-9-9-9-8-|---8-8-8-8-8-8-8-|-5-5-5-5-5-5-5-5-|
|-9-9-9-9-9-9-9-8-|---8-8-8-8-8-8-8-|-5-5-5-5-5-5-5-5-|


  N.C.              B5                Bb5
  E E E E E E E E   E E E E E E E E   E H..
|-----------------|-----------------|----------||
|-----------------|-----------------|----------||
|-----------------|-7-7---7-7-7---7-|-7--------||
|-----------------|-x-x---x-x-x---x-|-x--------||
|-----------------|-5-5---5-5-5---5-|-5--------||
|-0-0-2-4-2-2-0-0-|-----------------|----------||
|
| E E E E E E E E   E E E E E E E E   E H..
|-----------------|-----------------|----------||
|-----------------|-----------------|----------||
|-----------------|-----------------|----------||
|-----------------|-9-9---9-9-9---9-|-8--------||
|-----------------|-9-9---9-9-9---9-|-8--------||
|-0-0-2-4-2-2-0-0-|-9-9---9-9-9---9-|-8--------||


   "You'll find me in the.."
    D5       E5    D5    G5      D5    A5
     E  E  E  E  E  E  E  E    E  E  E  E  E  E  E  E
||--------------------------|-------------------------|
||o-------------------------|-------------------------|
||--14-14-14-14-14-14-14-14-|-14-14-14-14-14-14-14-14-|
||---x--x--x--x--x--x--x--x-|--x--x--x--x--x--x--x--x-|
||o-12-12-12-12-12-12-12-12-|-12-12-12-12-12-12-12-12-|
||--------------------------|-------------------------|
|
|    E  E  E  E  E  E  E  E    E  E  E  E  E  E  E  E
||--------------------------|-------------------------|
||o-------------------------|-------------------------|
||--------------------------|-------------------------|
||---0--0--0--2--2--0--0--5-|--5--0--0--7--7--7--7--7-|
||o--0--0--0--2--2--0--0--5-|--5--0--0--7--7--7--7--7-|
||---0--0--0--2--2--0--0--5-|--5--0--0--7--7--7--7--7-|


  D5       E5          G5
   E  E  E  E  E  E  E  E    E  E  E E E E E  E
|-------------------------|----------------------||
|-------------------------|---------------------o||
|-14-14-14-14-14-14-14-12-|-12-11-11-7-7-9-9-11--||
|--x--x--x--x--x--x--x--x-|--x--x--x-x-x-x-x--x--||
|-12-12-12-12-12-12-12-10-|-10--9--9-5-5-7-7--9-o||
|-------------------------|----------------------||
|
|  E  E  E  E  E  E  E  E    E  E  E E E E E  E
|-------------------------|----------------------||
|-------------------------|---------------------o||
|-------------------------|----------------------||
|--0--0--0--2--2--2--2--5-|--5--5--5-5-5-5-5--5--||
|--0--0--0--2--2--2--2--5-|--5--5--5-5-5-5-5--5-o||
|--0--0--0--2--2--2--2--5-|--5--5--5-5-5-5-5--5--||


  E5                G5
  E E E E E E E E    E  E  E  E  E  E  E  E
|-----------------|-------------------------||
|-----------------|-------------------------||
|-9-9-9-9-9-9-9-9-|-12-12-12-12-12-12-12-12-||
|-x-x-x-x-x-x-x-x-|--x--x--x--x--x--x--x--x-||
|-7-7-7-7-7-7-7-7-|-10-10-10-10-10-10-10-10-||
|-----------------|-------------------------||
|
| E E E E E E E E    E  E  E  E  E  E  E  E
|-----------------|-------------------------||
|-----------------|-------------------------||
|-----------------|-------------------------||
|-2-2-2-2-2-2-2-2-|--5--5--5--5--5--5--5--5-||
|-2-2-2-2-2-2-2-2-|--5--5--5--5--5--5--5--5-||
|-2-2-2-2-2-2-2-2-|--5--5--5--5--5--5--5--5-||


   Bridge
    D5         N.C.     D5         N.C.
    Gtr III
    E E  E E E  E  Q    E E  E E E  E  Q
||--------------------|-------------------|
||o-----10------------|-----10------------|
||----7----7----7--7--|---7----7----7--7--|
||--0--------0--------|-0--------0--------|
||o-------------------|-------------------|
||--------------------|-------------------|
|
|   Gtr I
|   E E  E E E  E  Q    E E  E E E  E  Q
||--------------------|-------------------|
||o-------------------|-------------------|
||-------------12-11--|------------12-11--|
||--0-0--0-0-0--x--x--|-0-0--0-0-0--x--x--|
||o-0-0--0-0-0-10--9--|-0-0--0-0-0-10--9--|
||--0-0--0-0-0--------|-0-0--0-0-0--------|
|
|   Gtr II
|   E E  E E E  E  Q    E E  E E E  E  Q
||--------------------|-------------------|
||o-------------------|-------------------|
||--------------9--7--|-------------9--7--|
||--0-0--0-0-0--x--x--|-0-0--0-0-0--x--x--|
||o-0-0--0-0-0--7--5--|-0-0--0-0-0--7--5--|
||--0-0--0-0-0--------|-0-0--0-0-0--------|


  G5         N.C.     A5         N.C.
  E E  E E E  E  Q    E E  E E E E E  E
|-------------------|--------------------||
|-----10------------|-----10------------o||
|---7----7----7--7--|---7----7---7-7--7--||
|-0--------0--------|-0--------0---------||
|-------------------|-------------------o||
|-------------------|--------------------||
|
| E E  E E E  E  Q    E E  E E E E E  E
|-------------------|--------------------||
|-------------------|-------------------o||
|------------12-11--|------------9-9-11--||
|-5-5--5-5-5--x--x--|-7-7--7-7-7-x-x--x--||
|-5-5--5-5-5-10--9--|-7-7--7-7-7-7-7--9-o||
|-5-5--5-5-5--------|-7-7--7-7-7---------||
|
| E E  E E E  E  Q    E E  E E E E E  E
|-------------------|--------------------||
|-------------------|-------------------o||
|-------------9--7--|------------6-6--7--||
|-5-5--5-5-5--x--x--|-7-7--7-7-7-x-x--x--||
|-5-5--5-5-5--7--5--|-7-7--7-7-7-4-4--5-o||
|-5-5--5-5-5--------|-7-7--7-7-7---------||


   "Don't forget yourselves.."
    D5                  N.C.     D5                  N.C.
    Gtr I
    PM--------------|            PM--------------|
    S S S S S S S S S S  E  Q    S S S S S S S S S S  E  Q
||-----------------------------|----------------------------|
||o----------------------------|----------------------------|
||-----------------------6--7--|----------------------6--7--|
||-----------------------x--x--|----------------------x--x--|
||o-0-0-0-0-0-0-0-0-0----4--5--|-0-0-0-0-0-0-0-0-0----4--5--|
||--0-0-0-0-0-0-0-0-0----------|-0-0-0-0-0-0-0-0-0----------|
|
|   Gtr II
|   PM--------------|            PM--------------|
|   S S S S S S S S S S  E  Q    S S S S S S S S S S  E  Q
||-----------------------------|----------------------------|
||o----------------------------|----------------------------|
||----------------------12-11--|---------------------12-11--|
||-----------------------x--x--|----------------------x--x--|
||o-0-0-0-0-0-0-0-0-0---10--9--|-0-0-0-0-0-0-0-0-0---10--9--|
||--0-0-0-0-0-0-0-0-0----------|-0-0-0-0-0-0-0-0-0----------|


  B5                  N.C.     G5
  PM--------------|            PM------|    PM  PM|
  S S S S S S S S S S  E  Q    S S E S S Q  S S S S E
|----------------------------|-------------------------||
|----------------------------|------------------------o||
|----------------------6--7--|-------------------------||
|----------------------x--x--|-------------------------||
|-9-9-9-9-9-9-9-9-9----4--5--|-5-5---5-5----5---5-5---o||
|-9-9-9-9-9-9-9-9-9----------|-5-5---5-5----5---5-5----||
|
| PM--------------|            PM------|    PM  PM|
| S S S S S S S S S S  E  Q    S S E S S Q  S S S S E
|----------------------------|-------------------------||
|----------------------------|------------------------o||
|---------------------12-11--|-------------------------||
|----------------------x--x--|-------------------------||
|-9-9-9-9-9-9-9-9-9---10--9--|-5-5---5-5----5---5-5---o||
|-9-9-9-9-9-9-9-9-9----------|-5-5---5-5----5---5-5----||


 "You'll find me in the.."
  N.C.
  W                 W
|-----------------|-----------------|
|-----------------|-----------------|
|-----------------|-----------------|
|-----------------|-----------------|
|-----------------|-----------------|
|-----------------|-----------------|
|
| E E E E E E E E   E E E E E E E E
|-----------------|-----------------|
|-----------------|-----------------|
|-----------------|-----------------|
|-----------------|-----------------|
|-----------------|-----------------|
|-0-0-0-2-2-0-0-5-|-5-0-0-7-7-7-7-7-|


  H..              E    E  E  E E E E  E   E
|--------------------|------------------------|
|--------------------|------------------------|
|-----------------12-|-12-11-11-7-7-9--9--11--|
|------------------x-|--x--x--x-x-x-x--x---x--|
|-----------------10-|-10--9--9-5-5-7--7---9--|
|--------------------|------------------------|
|
| E   E E E E E E  E    E  E  E E E E  Q
|--------------------|------------------------|
|--------------------|------------------------|
|--------------------|------------------------|
|--------------------|------------------------|
|--------------------|------------------------|
|-0---0-0-2-2-2-2--5-|--5--5--5-5-5-5-17\-----|


    D5       E5    D5    G5      D5    A5
     E  E  E  E  E  E  E  E    E  E  E  E  E  E  E  E
||--------------------------|-------------------------|
||o-------------------------|-------------------------|
||--14-14-14-14-14-14-14-14-|-14-14-14-14-14-14-14-14-|
||---x--x--x--x--x--x--x--x-|--x--x--x--x--x--x--x--x-|
||o-12-12-12-12-12-12-12-12-|-12-12-12-12-12-12-12-12-|
||--------------------------|-------------------------|
|
|    E  E  E  E  E  E  E  E    E  E  E  E  E  E  E  E
||--------------------------|-------------------------|
||o-------------------------|-------------------------|
||--------------------------|-------------------------|
||---0--0--0--2--2--0--0--5-|--5--0--0--7--7--7--7--7-|
||o--0--0--0--2--2--0--0--5-|--5--0--0--7--7--7--7--7-|
||---0--0--0--2--2--0--0--5-|--5--0--0--7--7--7--7--7-|


  D5       E5          G5
   E  E  E  E  E  E  E  E    E  E  E E E E E  E  3x
|-------------------------|----------------------||
|-------------------------|---------------------o||
|-14-14-14-14-14-14-14-12-|-12-11-11-7-7-9-9-11--||
|--x--x--x--x--x--x--x--x-|--x--x--x-x-x-x-x--x--||
|-12-12-12-12-12-12-12-10-|-10--9--9-5-5-7-7--9-o||
|-------------------------|----------------------||
|
|  E  E  E  E  E  E  E  E    E  E  E E E E E  E  3x
|-------------------------|----------------------||
|-------------------------|---------------------o||
|-------------------------|----------------------||
|--0--0--0--2--2--2--2--5-|--5--5--5-5-5-5-5--5--||
|--0--0--0--2--2--2--2--5-|--5--5--5-5-5-5-5--5-o||
|--0--0--0--2--2--2--2--5-|--5--5--5-5-5-5-5--5--||


  E5                G5                        E5                G5
  E E E E E E E E    E  E  E  E  E  E  E  E   E E E E E E E E    W
|-----------------|-------------------------|-----------------|-------||
|-----------------|-------------------------|-----------------|-------||
|-9-9-9-9-9-9-9-9-|-12-12-12-12-12-12-12-12-|-9-9-9-9-9-9-9-9-|-12----||
|-x-x-x-x-x-x-x-x-|--x--x--x--x--x--x--x--x-|-x-x-x-x-x-x-x-x-|--x----||
|-7-7-7-7-7-7-7-7-|-10-10-10-10-10-10-10-10-|-7-7-7-7-7-7-7-7-|-10----||
|-----------------|-------------------------|-----------------|-------||
|
| E E E E E E E E    E  E  E  E  E  E  E  E   E E E E E E E E    W
|-----------------|-------------------------|-----------------|-------||
|-----------------|-------------------------|-----------------|-------||
|-----------------|-------------------------|-----------------|-------||
|-2-2-2-2-2-2-2-2-|--5--5--5--5--5--5--5--5-|-2-2-2-2-2-2-2-2-|--5----||
|-2-2-2-2-2-2-2-2-|--5--5--5--5--5--5--5--5-|-2-2-2-2-2-2-2-2-|--5----||
|-2-2-2-2-2-2-2-2-|--5--5--5--5--5--5--5--5-|-2-2-2-2-2-2-2-2-|--5----||


   Outro Breakdown
    D5
    Gtrs I, II
    PM----------------------|       PM------|   PM|
    S S S S S S S S S S E S S E   E E E E S S E S S E
||------------------------------|---------------------|
||o-----------------------------|---------------------|
||------------------------------|---------------------|
||------------------------------|---------------------|
||o-0-0-0-0-0-0-0-0-0-0---0-0---|---0-0-0-0-0---0-0---|
||--0-0-0-0-0-0-0-0-0-0---0-0---|---0-0-0-0-0---0-0---|


  PM----------------------|     PM------|   PM------|
  S S S S S S S S S S E S S E   S S E S S E E S E S E
|-----------------------------|------------------------||
|-----------------------------|-----------------------o||
|-----------------------------|------------------------||
|-----------------------------|------------------------||
|-0-0-0-0-0-0-0-0-0-0---0-0---|-0-0---0-0---0-0-0-0-0-o||
|-0-0-0-0-0-0-0-0-0-0---0-0---|-0-0---0-0---0-0-0-0-0--||



Duration Legend
---------------
W - whole; H - half; Q - quarter; E - 8th; S - 16th; T - 32nd; X - 64th; a - acciaccatura
+ - note tied to previous; . - note dotted; .. - note double dotted
Uncapitalized letters represent notes that are staccato (1/2 duration)
Irregular groupings are notated above the duration line
Duration letters will always appear directly above the note/fret number it represents the
duration for.  Duration letters with no fret number below them represent rests.  Multi-
bar rests are notated in the form Wxn, where n is the number of bars to rest for.  Low
melody durations appear below the staff

Tablature Legend
----------------
 h   - hammer-on
 p   - pull-off
 b   - bend
 pb  - pre-bend
 r   - bend release (if no number after the r, then release immediately)
 /\  - slide into or out of (from/to "nowhere")
 s   - legato slide
 S   - shift slide
 - natural harmonic
[n]  - artificial harmonic
n(n) - tapped harmonic
 ~   - vibrato
 tr  - trill
 T   - tap
 TP  - trem. picking
 PM  - palm muting
\n/  - tremolo bar dip; n = amount to dip
 \n  - tremolo bar down
 n/  - tremolo bar up
/n\  - tremolo bar inverted dip
 =   - hold bend; also acts as connecting device for hammers/pulls
 <> - volume swell (louder/softer)
 x   - on rhythm slash represents muted slash
 o   - on rhythm slash represents single note slash

Misc Legend
-----------
 |  - bar
||  - double bar
||o - repeat start
o|| - repeat end
*|  - double bar (ending)
 :  - bar (freetime)
 $  - Segno
 &  - Coda
Tempo markers -  = BPM(8/16=s8/s16), where s8 = swing 8ths, s16 = swing 16ths


** Generated using Power Tab Editor by Brad Larsen: The Official Power Tab Web Site
Related for The Downfall Of Us All tab
The Downfall Of Us All chords by A Day To Remember