Song name
# A B C D E F G H I J K L M N O P Q R S T U V W X Y Z

A Day To Remember - Monument tab

******************************************************
**Disclaimer: I do not own rights to this song********
**it is made by the band A Day To Remember NOT me*****
******************************************************
I'm only tabbing the lead parts
Tabbed By Cooper Lagace
this covers the studio AND live versions
only tabbed by ear, enjoy!

D|--------------------------------------|
A|-3-3-3-5-5-5--3-3-3-5-5-5-5-5-5-5-----|
F|-5-5-5-5-5-5--5-5-5-5-5-5-5-5-5-5-x2--|
C|--------------------------------------|
G|--------------------------------------|
C|--------------------------------------|

Chorus Line:
|-----------------------------------------------------|
|-----------------------------------------------------|
|----------------555-----4444h555-5~-55~-5~5~-5-5-5-5-|
|-3---/5---\3-3-3-----3-3---------5~-55~-5~5~-5-5-5-5-|
|-3---/5---\3-3-3-----3-3---------3~-33~-3~3~-3-3-3-3-|
|-3x16/5x16\3-3-3-----3-3-----------------------------|x2

"It's monday morning..."
|---------------------------------------------------------------|
|---------------------------------------------------------------|
|---------------------------------------------------------------|
|-333--333--333-333-333--333--333-444-555--555--555-333-000-000-|
|-333--333--333-333-333--333--333-444-555--555--555-333-000-000-|
|-333--333--333-333-333--333--333-444-555--555--555-333-000-000-|

|------------------------------------|
|---3--3h5--6---5---33h5-3h5---------|
|-55--5---5---5---5------------------|
|-------------------------------12\--|
|---------------------------x4--12\--|
|-------------------------------12\--|

Chorus Line:
|-------------------------------------------------------|
|-------------------------------------------------------|
|-----------------555------4444h555-5~-55~-5~5~-5-5-5-5-|
|-3---/5---\3-3-3------3-3----------5~-55~-5~5~-5-5-5-5-|
|-3---/5---\3-3-3------3-3----------3~-33~-3~3~-3-3-3-3-|
|-3x16/5x16\3-3-3------3-3------------------------------|x2


|--------|
|----5---|
|--5-----|
|-2-2----|
|--------|
|--------|x7?

in the background of this part there is a lead part... its really hard to hear so im not 
but its somethin like this
|------------|  |---------|
|------------|  |-3---5---|
|------------|  |---5---5-|
|------------|  |---------|
|-77-55-44h5-|  |---------|
|------------|x2|---------|played like 10 times.. not sure

|-------------------------|
|-6---5---3---5---7/13x4--|
|---5---5---5---5---------|
|-------------------------|
|-------------------------|
|-------------------------|


Chorus Line:
|-------------------------------------------------------|
|-------------------------------------------------------|
|-----------------555-----4444h555-5~-55~-5~5~-5-5-5-5~-|
|-3---/5---\3-3-3-----3-3----------5~-55~-5~5~-5-5-5-5~-|
|-3---/5---\3-3-3-----3-3----------3~-33~-3~3~-3-3-3-3~-|
|-3x16/5x16\3-3-3-----3-3-------------------------------|x2


|--------------------------------------|
|--------------------------------------|
|-5---8----5---4-----------------------|
|-7---10---5---5-----------------------|
|--------------------------------------|
|--------------------------------------|
this is repeated while this lead part is played
|-----------------------------------|
|-5----8----5----8-7p5---5-------8--|
|---55---55---55-------5---7p5-5----|
|-----------------------------------|
|-----------------------------------|
|-----------------------------------|x7

|-------------------------------|
|-4----6----4----6p4---4--------|
|---44---44---44-----4---6p4----|
|-------------------------------|
|-------------------------------|
|-------------------------------| played once

"and i scream..."
|-------------------------------------|
|-------------------------------------|
|-222-222-2-2-555-555-----------------|
|-222-222-2-2-555-555-7\--5----3------|
|-000-000-0-2-333-333-7\--5----3------|
|---------------------7\----5x12-3x12-|x2


|-----------------------------|
|-----------------------------|
|-----------------------------|
|-----------------------------|
|-5~--5/7--8~--7~--5~--3~-----|
|-----------------------------|

feel free to comment any corrections and ill try to fix it
Tap to rate this tab
# A B C D E F G H I J K L M N O P Q R S T U V W X Y Z