Song name
# A B C D E F G H I J K L M N O P Q R S T U V W X Y Z

A Day To Remember - Plot To Bomb The Panhandle tab

*First tab* :D

Great and easy song by ADTR. Straight-forward riffs and no solos, which is a plus for beginners. 

Legend:
PM/.  Palm Mute
LR/>  Let Ring
=  Sustain
/  slide up
\ slide down
h hammer on
p pull off
~ vibrato
x mute note

Drop C tuning

____________________________________________________________________________

Intro:

1st Guitar Only                                                  
D|----------------|------------------|----------------|
A|----------------|------------------|----------------|
F|----555555555555|----55555555------|----555555555555|
C|----------------|------------------|----------------|
G|7777------------|7777---------73---|7777------------|
C|7777------------|7777---------73---|7777------------|

          "........GO!"
D|--------------------|
A|--------------------|
F|----55555555--------|
C|--------------------|
G|7777----------------|
C|7777----------------|



1st Guitar & 2nd Guitar  
D|----------------|-----------------|----------------|
A|----------------|-----------------|----------------|
F|----555555555555|----55555555-----|----555555555555|
C|----------------|-----------------|----------------|
G|7777------------|7777---------73--|7777------------|
C|7777------------|7777---------73--|7777------------|
 
             "..On!"
D|-----------------|
A|-----------------|
F|----55555555-----|
C|-----------------|
G|7777---------33--|
C|7777---------33--|
               ..


1st Guitar                    
D|----------------|-----------------|----------------|
A|----------------|-----------------|----------------|
F|----555555555555|----55555555-----|----555555555555|
C|----------------|-----------------|----------------|
G|7777------------|7777---------73--|7777------------|
C|7777------------|7777---------73--|7777------------|

2nd Guitar
D|----------------|-----------------|----------------|
A|----------------|-----------------|----------------|
F|----------------|-----------------|----------------|
C|----999999999999|----99999777-----|----999997775555|
G|7777------------|7777---------73--|7777------------|
C|7777------------|7777---------73--|7777------------|



1st Guitar & 2nd Guitar
D|-----------------|
A|-----------------|
F|----55555555-----|
C|-----------------|
G|7777---------73--|
C|7777---------73--|



1st Guitar Only
                            *Drums*
D|-----------------|----------------|
A|-----------------|----------------|
F|-----------------|----------------|
C|----------------3|================|
G|0--0023------23-3|================|
C|--------2--22----|----------------|

Verse:

The rhythm here doesn't really matter. Just play something along these lines
and you'll be fine. Be sure to play the palm mutes and the sustains.

1st Guitar & 2nd Guitar
D|-----------------|----------------|-----------------|----------------|
A|-----------------|----------------|-----------------|----------------|
F|-----------------|----------------|-----------------|----------------|
C|-----------------|----------------|---------5-55-555|-----xx-xx-xx-xx|
G|7-77-777-2-22-222|3333333333333333|7-77-777-3-33-333|-33--xx-xx-xx-xx|
C|7-77-777-2-22-222|3333333333333333|7-77-777---------|-33--xx-xx-xx-xx|

D|-----------------|----------------|-----------------|----------------|
A|-----------------|----------------|-----------------|----------------|
F|-----------------|----------------|-----------------|----------------|
C|-----------------|----------------|---------5-55-555|----------------|
G|7-77-777-2-22-222|3333333333333333|7-77-777-3-33-333|-3==============|
C|7-77-777-2-22-222|3333333333333333|7-77-777---------|-3==============|

Pre-Chorus:

1st Guitar
D|----------------|----------------|----------------|
A|----------------|----------------|----------------|
F|----------------|----------------|----------------|
C|----------------|----------------|----------------|
G|33-33-33-33-3333|77-77-77-77-7777|33-33-33-33-3333|
C|33-33-33-33-3333|77-77-77-77-7777|33-33-33-33-3333|
  PM.................................................

D|-------------------------|
A|-------------------------|
F|-------------------------|
C|-------------------------|
G|77-77-1010-1010-10101010-|
C|77-77-1010-1010-10101010-|

2nd Guitar
D|----------------|------------------|----------------|8-----8-----------|
A|----------------|------------5h6p5-|----------------|--8-8---8-8-5h6h5-|
F|----------------|-----------------5|----------------|-----------------5|
C|----------------|------------------|----------------|------------------|
G|33-33-33-33-3333|77-77-77-77-------|33-33-33-33-3333|------------------|
C|33-33-33-33-3333|77-77-77-77-------|33-33-33-33-3333|------------------|
  PM..........................        PM.............. LR>>>>>>>>>>



1st Guitar
D|----------------|----------------|----------------|
A|----------------|----------------|----------------|
F|----------------|----------------|----------------|
C|----------------|----------------|----------------|
G|33-33-33-33-3333|77-77-77-77-7777|33-33-33-33-3333|
C|33-33-33-33-3333|77-77-77-77-7777|33-33-33-33-3333|
PM..................................................

2nd Guitar
D|----------------|------------------|----------------|
A|----------------|------------5h6p5-|----------------|
F|----------------|-----------------5|----------------|
C|----------------|------------------|----------------|
G|33-33-33-33-3333|77-77-77-77-------|33-33-33-33-3333|
C|33-33-33-33-3333|77-77-77-77-------|33-33-33-33-3333|
PM............................        ................


1st Guitar & 2nd Guitar
D|----------------|----------------|----------------|
A|----------------|----------------|6===============|
F|----------------|----------------|5===============|
C|----------------|3===============|3===============|
G|55-55-22-22-2222|3===============|3===============|
C|55-55-22-22-2222|3===============|3===============|
PM................


Chorus:

As with the Verse, the rhythm is not important, just the sound. Play something 
like this, and it'll sound good. 2nd Guitar part is crucial.

1st Guitar & 2nd Guitar 
D|--------------------------------|---------------------------------|    
A|--------------------------------|---------------------------------|    
F|--------------------------------|---------------------------------|    
C|--------------------------------|5-55-555-555-555-----------------|
G|7-77-777-777-7773-33-333-333-333|3-33-333-333-3335-55-555-6-66-666|    
C|7-77-777-777-7773-33-333-333-333|----------------5-55-555-6-66-666|

1st Guitar repeats above second time through

2nd Guitar second time through
D|---------------------|------------------|-------------------|
A|----5---5-6-5--------|--5---5-8-5-5/6\5-|--5---5-6-5--------|
F|-5-5--5-------5h7p5-5|-5--5------------5|-5--5-------5h7p5-5|
C|---------------------|------------------|-------------------|
G|---------------------|------------------|-------------------|
C|---------------------|------------------|-------------------|

D|-------------------|
A|--5---5-8-5--------|
F|-5--5-------5h7p5-5|
C|-------------------|
G|-------------------|
C|-------------------|

Bridge:

1st Guitar Only   | 1st & 2nd Guitar | Repeat Intro
D|----------------|----------------|   |     R     |
A|----------------|----------------|   |     E     |
F|----555555555555|----55555555----|   |     P     |
C|----------------|----------------|   |     E     |
G|3-3-------------|3-3---------3-5-|   |     A     |
C|3-3-------------|3-3---------3-5-|   | I N T R O | 

Verse
Pre-Chorus
Chorus

Interlude:

1st Guitar Only |1st Guitar & 2nd Guitar
D|--------------|--------------|--------------|--------------|--------------|
A|--------------|--------------|--------------|--------------|--------------|
F|--------------|--------------|--------------|--------------|--------------|
C|3=============|3=============|7=============|3=============|7=============|
G|3=============|3=============|7=============|3=============|7=============|
C|3=============|3=============|7=============|3=============|7=============|
  ^^^^^^^^^^^^^^|^^^^^^^^^^^^^^^^^^^^^^^^^^^^^^^^^^^^^^^^^^^^^^^^^^^^^^^^^^^^
 Hold 2 Measures|Hold 1 Measure

2nd Guitar Only
D|----------------|
A|----------------|
F|5555555555555555|
C|----------------| x2
G|----------------|
C|----------------|

1st Guitar & 2nd Guitar
D|----------------|----------------|----------------|----------------|
A|----------------|----------------|----------------|--------55555555|
F|----------------|----------------|----------------|--------55555555|
C|--3---3---3---3-|--7---7---5---5-|--3---3---3---3-|--7-777733333333|
G|333-333-333-333-|777-777-555-555-|333-333-333-333-|777-7777--------|
C|333-333-333-333-|777-777-555-555-|333-333-333-333-|777-7777--------|
  ..  ..  ..  ..   ..  ..  ..  ..   ..  ..  ..  ..   ..


                                                             "Get up!"
D|----------------|----------------|----------------|----------------|
A|----------------|---------5555555|----------------|----------------|
F|----------------|---------xxxxxxx|----------------|----------------|
C|----------------|---------3333333|----------------|----------------|
G|7---2---3-------|7---2---3-------|7---2---3-------|7---2---3-------|
C|7---2---3-------|7---2---3-------|7---2---3-------|7---2---3-------|

D|----------------|-----------------|----------------|----------------|
A|----------------|-----------------|----------------|----------------|
F|----------------|-----------------|----------------|----------------|
C|----------------|-----------------|----------------|----------------|
G|-----------3--33|-----------3-3/55|-----------3--33|-----------3-355|
C|7---2---3--3--33|7---2---3--3-3/55|7---2---3--3--33|7---2---3--3-355|
                ..                                 .. 
Outro:

1st Guitar
D|----------------|----------------|----------------|------------------|
A|----------------|----------------|----------------|------------------|
F|----555555555555|----55555555----|----555555555555|----55555555------|
C|----------------|----------------|----------------|------------------|
G|7-7-------------|7777--------73--|7777------------|7777--------73--7\|
C|7-7-------------|7777--------73--|7777------------|7777--------73--7\|

2nd Guitar
D|----------------|----------------|----------------|------------------|
A|----------------|----------------|----------------|------------------|
F|----------------|----------------|----555555555555|----55555555------|
C|----------------|----------------|----------------|------------------|
G|7-7-------------|------------73--|7777------------|7777--------73--7\|
C|7-7-------------|------------73--|7777------------|7777--------73--7\|

:D That's all! Enjoy!


Tap to rate this tab
# A B C D E F G H I J K L M N O P Q R S T U V W X Y Z