Guitaretab - guitar tabs
Song name
# A B C D E F G H I J K L M N O P Q R S T U V W X Y Z

A Day To Remember - Have Faith In Me Acoustic tab

Tuning: Drop C
Acoustic Tabs
Lead Guitar

(*) Palm Mute

Intro:
D:-----------------------------------------------|    
A:-----10---10---10---10---8---8---7---7---------|   
F:---7----7----7----7----7---7---7---7-----------|   
C:-----------------------------------------------|x11
G:-----------------------------------------------|  
C:-----------------------------------------------| 

Pre Chorus
D:-----------------------------------------------|
A:-----------------------------------------------|
F:-----------------------------------------------|
C:-----10---10---10---10-3333-5555---------------|
G:---7----7----7----7----3333-5555---------------|
C:-----------------------3333-5555---------------|

Chorus:
D:-----------------------------------------------|
A:-----------------------------------------------|
F:---777777777-14141414-777777777-14141414-------|
C:-----------------------------------------------|x2
G:---555555555-12121212-555555555-12121212-------|
C:-----------------------------------------------|

D:-----------------------------------------------|
A:-----------------------------------------------|
F:---7777-9/11/9-7777-9/11/9-666666-121212/111111|
C:-----------------------------------------------|
G:---5555-7/9/7--5555-7/9/7--444444-101010/999---|
C:-----------------------------------------------|

Second Verse
D:-----------------------------------------------|
A:-----------------------------------------------|
F:-----------------------------------------------|
C:--999999999-000000-5555-22-555-----------------|x2 (Listen for strumming
G:--999999999-000000-5555-22-555-----------------|    pattern)
C:--999999999-000000-5555-22-555-----------------|

Pre Chorus
D:-----77777----7777----7777----7777-------------|
A:-----77777----7777----7777----7777-------------|
F:-----------------------------------------------|
C:--99-------00------55------33------------------|
G:--99-------00------55------33------------------|
C:--99-------00------55------33------------------|

D:-----77777----7777----7777---------------------|
A:-----77777----7777----7777---------------------|
F:-----------------------------------------------|
C:--99-------00------55------3333-5555-----------|
G:--99-------00------55------3333-5555-----------|
C:--99-------00------55------3333-5555-----------|

Chorus
D:-----------------------------------------------|
A:-----------------------------------------------|
F:---777777777-14141414-777777777-14141414-------|
C:-----------------------------------------------|x2
G:---555555555-12121212-555555555-12121212-------|
C:-----------------------------------------------|

D:-----------------------------------------------|
A:-----------------------------------------------|
F:---7777-9/11/9-7777-9/11/9-666666-121212/111111|
C:-----------------------------------------------|
G:---5555-7/9/7--5555-7/9/7--444444-101010/999---|
[ Tab from: http://www.guitaretab.com/a/a-day-to-remember/253166.html ]
Repeat Chorus
D:-----------------------------------------------|
A:-----------------------------------------------|
F:---777777777-14141414-777777777-14141414-------|
C:-----------------------------------------------|x2
G:---555555555-12121212-555555555-12121212-------|
C:-----------------------------------------------|

D:-----------------------------------------------|
A:-----------------------------------------------|
F:---7777-9/11/9-7777-9/11/9-666666-121212/111111|
C:-----------------------------------------------|
G:---5555-7/9/7--5555-7/9/7--444444-101010/999---|

Bridge
D:-----------------------------------------------|
A:-----------------------------------------------|
F:---44444444-8888-7777-6666-7777-6666-----------|
C:-----------------------------------------------|
G:---22222222-6666-5555-4444-5555-4444-----------|
C:-----------------------------------------------|

D:-----------------------------------------------|
A:-----------------------------------------------|
F:---44444444-7777777-9999999-1414141414---------|
C:-----------------------------------------------|
G:---22222222-5555555-7777777-1212121212---------|
C:-----------------------------------------------|

D:-----------------------------------------------|
A:-----------------------------------------------|
F:---44444444-8888-7777-6666-7777-6666-----------|
C:-----------------------------------------------|
G:---22222222-6666-5555-4444-5555-4444-----------|
C:-----------------------------------------------|

D:-----------------------------------------------|
A:-----------------------------------------------|
F:---444444444444-666666666666-777---------------|
C:-----------------------------------------------|
G:---222222222222-444444444444-555---------------|
C:-----------------------------------------------|

D:-----------------------------------------------|    
A:-----10---10---10---10---8---8---7---7---------|   
F:---7----7----7----7----7---7---7---7-----------|   
C:-----------------------------------------------|x3
G:-----------------------------------------------|  
C:-----------------------------------------------|

Ending Chorus (repeat twice)
D:-----------------------------------------------|
A:-----------------------------------------------|
F:---777777777-14141414-777777777-14141414-------|
C:-----------------------------------------------|x2
G:---555555555-12121212-555555555-12121212-------|
C:-----------------------------------------------|

D:-----------------------------------------------|
A:-----------------------------------------------|
F:---7777-9/11/9-7777-9/11/9-666666-121212/111111|
C:-----------------------------------------------|
G:---5555-7/9/7--5555-7/9/7--444444-101010/999---|
C:-----------------------------------------------|

Outro
D:-----------------------------------------------|
A:-----------------------------------------------|
F:-----------------------------------------------|
C:---55555555555555555555555555555555555555------|
G:---55555555555555555555555555555555555555------|
C:-----------------------------------------------|
     **************************************
Related for Have Faith In Me Acoustic tab
Have Faith In Me Acoustic chords by A Day To Remember