Song name
# A B C D E F G H I J K L M N O P Q R S T U V W X Y Z

A Day To Remember - If I Leave tab

If I Leave- ADTR

Tabbed by: Brian Poston

Tuning:Drop D


Guitar One
Intro: x6

e|---------------------------------------------------------------|
B|-----5----5-----5-----5-----5----------------------------------|
G|---2----2-----2-----2-----2---2--------------------------------|
D|-4----0--------------------------------------------------------|
A|------------0-----0-----0--------------------------------------|
D|---------------------------------------------------------------|

Guitar Two
Intro: x4

e|---------------------------------------------------------------|
B|---------------------------------------------------------------|
G|---------------2-2-2-------------------------------------------|
D|-4-4-4--0-0-0--2-2-2---2-2-2-2-2-2-2-3-------------------------|
A|-4-4-4--0-0-0--0-0-0---2-2-2-2-2-2-2-3-------------------------|
D|-4-4-4--0-0-0----------2-2-2-2-2-2-2-3-------------------------|

e|---------------------------------------------------------------|
B|---------------------------------------------------------------|
G|---------------------------------------------------------------|
D|-0-0-0-0-0-0-0-0-0-0-0-0---------------------------------------|
A|-0-0-0-0-0-0-0-0-0-0-0-0-------7-------------------------------|
D|-0-0-0-0-0-0-0-0-0-0-0-0---4h7---------------------------------|

Verse: x2

e|---------------------------------------------------------------|
B|---------------------------------------------------------------|
G|---------------------------------------------------------------|
D|-0--0-0-0--0-0--0-0-0---------0--0-0-0--0-0--0-0-0-------------|
A|-0--0-0-0--0-0--0-0-0------7--0--0-0-0--0-0--0-0-0------7------|
D|-0--0-0-0--0-0--0-0-0--4h7----0--0-0-0--0-0--0-0-0--4h7--------|

e|---------------------------------------------------------------|
B|---------------------------------------------------------------|
G|---------------------------------------------------------------|
D|-4--4-4-4--4-4--4-4-4---------2--2-2-2--2-2--2-2-2-------------|
A|-4--4-4-4--4-4--4-4-4------7--2--2-2-2--2-2--2-2-2------7------|
D|-4--4-4-4--4-4--4-4-4--4h7----2--2-2-2--2-2--2-2-2--4h7--------|

Guitar One
2nd half of the verse: 

e|--0---0--0--0-0-0------0--0-0-0-0-0----------------------------|
B|-10--10-10-10-9-9------5--5-5-5-5-5----------------------------|
G|-----------------------7--7-7-7-6-6----------------------------|
D|---------------------------------------------------------------|
A|---------------------------------------------------------------|
D|---------------------------------------------------------------|

Pre-Chorus: x2


e|---------------------------------------------------------------|
B|---------------------------------------------------------------|
G|---------------------------------------------------------------|
D|-4-4-4-2-2-2-0-0-0-0-0-0-0-0-0-0-------------------------------|
A|---------------------------------------------------------------|
D|---------------------------------------------------------------|

Guitar Two
Pre- Chorus: x2

e|---------------------------------------------------------------|
B|---------------------------------------------------------------|
G|---------------------------------------------------------------|
D|---------------------------------------------------------------|
A|-4-4-4-2-2-2-0-0-0-0-0-0-0-0-0-0-------------------------------|
D|-4-4-4-2-2-2-0-0-0-0-0-0-0-0-0-0-------------------------------|

Chorus

e|---------------------------------------------------------------|
B|---------------------------------------------------------------|
G|---------------------------------------------------------------|
D|-2222222222222222----------------------------------------------|
A|-0000000000000000-2222222222222222-44444444-22222222-00000000--|
D|------------------2222222222222222-44444444-22222222-00000000--|

e|---------------------------------------------------------------|
B|---------------------------------------------------------------|
G|---------------------------------------------------------------|
D|---------------------------------------------------------------|
A|-2222-0000-----------------------------------------------------|
D|-2222-0000-----------------------------------------------------|

Guitar One
Chorus

e|---------------------------------------------------------------|
B|---------10-10-10-10-9-9-9-9------------10-10-10-10-9-9-9-9----|
G|---------------------------------------------------------------|
D|-22222222-7--7--7--7-6-6-6-6------------7--7--7--7--6-6-6-6----|
A|-00000000---------------------222222222------------------------|
E|------------------------------222222222------------------------|

e|---------------------------------------------------------------|
B|---------------------------------------------------------------|
G|-6-6-6-4-4-4-6-6-6--------9-9-9-9--2-2-2--4--4-4-----6---------|
D|-------------------6-6-6-----------------------------------7777|
A|-4-4-4-2-2-2-4-4-4--------7-7-7-7--0-0-0--2--2-2-----4---------|
E|-------------------6-6-6-----------------------------------7777|
                                            If I leave this


Tap to rate this tab
 
# A B C D E F G H I J K L M N O P Q R S T U V W X Y Z