A Day To Remember - You Be Tails Ill Be Sonic tab

Tabbed by: Joshua Garcia (halofreak731@aol.com)

Tabs for the song: You Be Tails, I'll Be Sonic by A Day To Remember
Please rate and let me know if you have any corrections. Thank you.


Tuning: Drop B (B F# B E G C#)


Intro
Guitar 1:
C#||----------------------------------------|
G ||----------------------------------------|
E ||----------------------------------------| x2
B ||----------------------------------------|
F#||----------------------------------------|
B ||--00-0-0-00-0-0-00-0-0-00-0-0-00000000--|
      ..     ..     ..     ..     ........


Verse
Guitar 1/2:
C#||----------------------------------------|
G ||----------------------------------------|
E ||----------------------------------------|
B ||-----0-0----0-0----0-0----0-0-----------|
F#||--00-0-0-00-0-0-00-0-0-00-0-0-00000000--|
B ||--00-0-0-00-0-0-00-0-0-00-0-0-00000000--|
      ..     ..     ..     ..     ........

C#||-----------------------------------------|
G ||-----------------------------------------|
E ||-----------------------------------------| x2
B ||-----0-0----0-0----0----8-8----7-7----7--|
F#||--00-0-0-00-0-0-00-0-00-8-8-00-7-7-00-7--|
B ||--00-0-0-00-0-0-00-0-00-8-8-00-7-7-00-7--|
      ..     ..     ..   ..     ..     ..


Guitar 1:
C#||--------------------------------------------|
G ||--------------------------------------------|
E ||-----10-10---10-10---10-10---10-10----------|
B ||-----x--x----x--x----x--x----x--x-----------|
F#||--00-8--8-00-8--8-00-8--8-00-8--8-00000000--|
B ||--00------00------00------00------00000000--|
      ..      ..      ..      ..      ........

C#||--------------------------------------------|
G ||--------------------------------------------|
E ||-----10-10---10-10---10----7-7----6-6----6--|
B ||-----x--x----x--x----x-----x-x----x-x----x--|
F#||--00-8--8-00-8--8-00-8--00-5-5-00-4-4-00-4--|
B ||--00------00------00----00-----00-----00----|
      ..      ..      ..    ..     ..     ..


Guitar 2:
C#||----------------------------------------|
G ||----------------------------------------|
E ||----------------------------------------|
B ||-----0-0----0-0----0-0----0-0-----------|
F#||--00-0-0-00-0-0-00-0-0-00-0-0-00000000--|
B ||--00-0-0-00-0-0-00-0-0-00-0-0-00000000--|
      ..     ..     ..     ..     ........

C#||-----------------------------------------|
G ||-----------------------------------------|
E ||-----------------------------------------| x2
B ||-----0-0----0-0----0----8-8----7-7----7--|
F#||--00-0-0-00-0-0-00-0-00-8-8-00-7-7-00-7--|
B ||--00-0-0-00-0-0-00-0-00-8-8-00-7-7-00-7--|
      ..     ..     ..   ..     ..     ..



Pre-Chorus
Guitar 1:
C#||------------------------------------------------------------------------------|
G ||------------------------------------------------------------------------------|
E ||--7-7-7-7-7-7-7-9--9-9-9-9-9-9-9-10-10-10-10-10-10-10-17--17-17-15--15-15-15--|
B ||--x-x-x-x-x-x-x-x--x-x-x-x-x-x-x-x--x--x--x--x--x--x--x---x--x--x---x--x--x---|
F#||--5-5-5-5-5-5-5-7--7-7-7-7-7-7-7-8--8--8--8--8--8--8--15--15-15-13--13-13-13--|
B ||------------------------------------------------------------------------------|

C#||-----------------------------|
G ||-----------------------------|
E ||--7-7-7-7-7-7-7-7-6-6-6-6-6--|
B ||--x-x-x-x-x-x-x-x-x-x-x-x-x--|
F#||--5-5-5-5-5-5-5-5-4-4-4-4-4--|
B ||-----------------------------|


Guitar 2:
C#||-------------------------------------------------|
G ||-------------------------------------------------|
E ||-------------------------------------------------|
B ||--88888888777777770000000333333338888888877777---|
F#||--88888888777777770000000333333338888888877777---|
B ||--88888888777777770000000333333338888888877777---|



Chorus
Guitar 1:
C#||----------------------------------------------------------------------------------------|
G ||----------------------------------------------------------------------------------------|
E ||--7-7-7-7-7-7-7-15--15-15-15-15-15-15-15-10-10-10-10-10-10-10-14--14-14-14-14-14-14-14--| x2
B ||--x-x-x-x-x-x-x-x---x--x--x--x--x--x--x--x--x--x--x--x--x--x--x---x--x--x--x--x--x--x---|
F#||--5-5-5-5-5-5-5-13--13-13-13-13-13-13-13-8--8--8--8--8--8--8--12--12-12-12-12-12-12-12--|
B ||----------------------------------------------------------------------------------------|


C#||---------------------------------------------------------------------------------------|
G ||---------------------------------------------------------------------------------------|
E ||--15-15-15-15-15-15-15-10--10-10-10-10-10-10-17-17-17-17-17-17-17-7--7-7-15--15-15-15--|
B ||--x--x--x--x--x--x--x--x---x--x--x--x--x--x--x--x--x--x--x--x--x--x--x-x-x---x--x--x---|
F#||--13-13-13-13-13-13-13-8---8--8--8--8--8--8--15-15-15-15-15-15-15-5--5-5-13--13-13-13--|
B ||---------------------------------------------------------------------------------------|


C#||-----------------------------------------------------|
G ||-----------------------------------------------------|
E ||--10-10-10-10-10-10-10-9--9-9-5--5-5-5---|-------|---|
B ||--x--x--x--x--x--x--x--x--x-x-x--x-x-x---|-slide-|---|
F#||--8--8--8--8--8--8--8--7--7-7-3--3-3-3---|--pick-|---|
B ||-----------------------------------------------------|


Guitar 2:
C#||------------------------------------|
G ||------------------------------------|
E ||------------------------------------| x2
B ||--00000008-888888833333337-7777777--|
F#||--00000008-888888833333337-7777777--|
B ||--00000008-888888833333337-7777777--|


C#||----------------------------------------------------------|
G ||----------------------------------------------------------|
E ||-------------------5555555------5-555---------------------|
B ||--88888883-3333333-5555555-0-00-5-555---88888887-773-333--|
F#||--88888883-3333333-3333333-0-00-3-333---88888887-773-333--|
B ||--88888883-3333333---------0-00---------88888887-773-333--|


C#||-------------------|
G ||-------------------|
E ||---2-----2-----2---|
B ||-----0-----0-------|
F#||-1-----1-----1-----|
B ||-------------------|



Verse
Guitar 1/2:
C#||----------------------------------------|
G ||----------------------------------------|
E ||----------------------------------------|
B ||-----0-0----0-0----0-0----0-0-----------|
F#||--00-0-0-00-0-0-00-0-0-00-0-0-00000000--|
B ||--00-0-0-00-0-0-00-0-0-00-0-0-00000000--|
      ..     ..     ..     ..     ........

C#||-----------------------------------------|
G ||-----------------------------------------|
E ||-----------------------------------------| x2
B ||-----0-0----0-0----0----8-8----7-7----7--|
F#||--00-0-0-00-0-0-00-0-00-8-8-00-7-7-00-7--|
B ||--00-0-0-00-0-0-00-0-00-8-8-00-7-7-00-7--|
      ..     ..     ..   ..     ..     ..


Guitar 1/2:
C#||----------------------------|
G ||----------------------------|
E ||----------------------------|
B ||--0--000000--0--000000------|
F#||--0--000000--0--000000------|
B ||--0--000000--0--000000--00--|
      .  ......  .  ......  ..


Guitar 1:
C#||-------|
G ||-------|
E ||-------|
B ||-------|
F#||-------|
B ||--0-0--|


Guitar 2:
C#||--------------|
G ||--------------|
E ||--------------|
B ||--------------|
F#||--------------|
B ||-00-0-0-00-0--|
     ..     ..

Guitar 1/2
C#||--------------------------------------------|
G ||--------------------------------------------|
E ||-----------------------------2-----2-----2--|
B ||--0--000000--0--000000--0------0-----0------|
F#||--0--000000--0--000000--0--1-----1-----1----|
B ||--0--000000--0--000000--0-------------------|
      .  ......  .  ......  .


Guitar 1/2:
C#||----------------------------|
G ||----------------------------|
E ||----------------------------|
B ||--0--000000--0--000000------|
F#||--0--000000--0--000000------|
B ||--0--000000--0--000000--00--|
      .  ......  .  ......  ..


Guitar 2:
C#||-------|
G ||-------|
E ||-------|
B ||-------|
F#||-------|
B ||--0-0--|


Guitar 1:
C#||--------------|
G ||--------------|
E ||--------------|
B ||--------------|
F#||--------------|
B ||-00-0-0-00-0--|
     ..     ..

Guitar 1/2
C#||--------------------------------------------|
G ||--------------------------------------------|
E ||-----------------------------2-----2-----2--|
B ||--0--000000--0--000000--0------0-----0------|
F#||--0--000000--0--000000--0--1-----1-----1----|
B ||--0--000000--0--000000--0-------------------|
      .  ......  .  ......  .


Pre-Chorus
Guitar 1:
C#||------------------------------------------------------------------------------|
G ||------------------------------------------------------------------------------|
E ||--7-7-7-7-7-7-7-9--9-9-9-9-9-9-9-10-10-10-10-10-10-10-17--17-17-15--15-15-15--|
B ||--x-x-x-x-x-x-x-x--x-x-x-x-x-x-x-x--x--x--x--x--x--x--x---x--x--x---x--x--x---|
F#||--5-5-5-5-5-5-5-7--7-7-7-7-7-7-7-8--8--8--8--8--8--8--15--15-15-13--13-13-13--|
B ||------------------------------------------------------------------------------|

C#||-------------------------------|
G ||-------------------------------|
E ||--7-7-7-7-7-7-7-6--6-6-6--9-9--|
B ||--x-x-x-x-x-x-x-x--x-x-x--x-x--|
F#||--5-5-5-5-5-5-5-4--4-4-7--7-7--|
B ||-------------------------------|


Guitar 2:
C#||----------------------------------------------------|
G ||----------------------------------------------------|
E ||----------------------------------------------------|
B ||--88888888777777770000000333333338888888877777777---|
F#||--88888888777777770000000333333338888888877777777---|
B ||--88888888777777770000000333333338888888877777777---|



Chorus
Guitar 1:
C#||----------------------------------------------------------------------------------------|
G ||----------------------------------------------------------------------------------------|
E ||--7-7-7-7-7-7-7-15--15-15-15-15-15-15-15-10-10-10-10-10-10-10-14--14-14-14-14-14-14-14--| x2
B ||--x-x-x-x-x-x-x-x---x--x--x--x--x--x--x--x--x--x--x--x--x--x--x---x--x--x--x--x--x--x---|
F#||--5-5-5-5-5-5-5-13--13-13-13-13-13-13-13-8--8--8--8--8--8--8--12--12-12-12-12-12-12-12--|
B ||----------------------------------------------------------------------------------------|


C#||---------------------------------------------------------------------------------------|
G ||---------------------------------------------------------------------------------------|
E ||--15-15-15-15-15-15-15-10--10-10-10-10-10-10-17-17-17-17-17-17-17-7--7-7-15--15-15-15--|
B ||--x--x--x--x--x--x--x--x---x--x--x--x--x--x--x--x--x--x--x--x--x--x--x-x-x---x--x--x---|
F#||--13-13-13-13-13-13-13-8---8--8--8--8--8--8--15-15-15-15-15-15-15-5--5-5-13--13-13-13--|
B ||---------------------------------------------------------------------------------------|


C#||-----------------------------------------|
G ||-----------------------------------------|
E ||--10-10-10-10-10-10-10-9--9-9-5--5-5-5---|
B ||--x--x--x--x--x--x--x--x--x-x-x--x-x-x---|
F#||--8--8--8--8--8--8--8--7--7-7-3--3-3-3---|
B ||-----------------------------------------|


Guitar 2:
C#||------------------------------------|
G ||------------------------------------|
E ||------------------------------------| x2
B ||--00000008-888888833333337-7777777--|
F#||--00000008-888888833333337-7777777--|
B ||--00000008-888888833333337-7777777--|


C#||----------------------------------------------------------|
G ||----------------------------------------------------------|
E ||-------------------5555555------5-555---------------------|
B ||--88888883-3333333-5555555-0-00-5-555---88888887-773-333--|
F#||--88888883-3333333-3333333-0-00-3-333---88888887-773-333--|
B ||--88888883-3333333---------0-00---------88888887-773-333--|



Bridge
Guitar 1:
C#||---------------------------------------------------------------|
G ||---------------------------------------------------------------|
E ||---------------------------------------------------------------|
B ||---------------------------------------------------------------|
F#||---------------------------------------------------------------|
B ||--7\--000--000--000--000--000--000--8-0-7---000--000--000--00--|
          ...  ...  ...  ...  ...  ...    .     ...  ...  ...  ..


Guitar 2:
C#||------|-----------------|
G ||------|-----------------|
E ||------|-----------------|
B ||--0~--|---4---1---1h4---|
F#||--0~--|---4---1---1h4---|
B ||--0~--|---4-001-001h4---|


Guitar 1:
C#||---------------------------------------------------------------|
G ||---------------------------------------------------------------|
E ||---------------------------------------------------------------|
B ||---------------------------------------------------------------|
F#||---------------------------------------------------------------|
B ||--7\--000--000--000--000--000--000--8-0-7---000--000--000--00--|
          ...  ...  ...  ...  ...  ...    .     ...  ...  ...  ..


Guitar 2:
C#||------|
G ||------|
E ||------|
B ||--0~--|
F#||--0~--|
B ||--0~--|



Breakdown
Guitar 1/2:
C#||---------------------------------------------------------------------|
G ||---------------------------------------------------------------------|
E ||---------------------------------------------------------------------|
B ||--4-0-0-0---0-0-0---0-0-0-----------0-0-0---0-0-0---0-0-0-1-0-0-4-4--|
F#||--4-0-0-0---0-0-0---0-0-0-5-----6-6-0-0-0---0-0-0---0-0-0-1-0-0-4-4--|
B ||--4-0-0-0---0-0-0---0-0-0---0-0-----0-0-0---0-0-0---0-0-0-1-0-0-4-4--|
        . . .   . . .   . . .   . .     . . .   . . .   . . .   . .

C#||------------------------------------------------------------------|
G ||------------------------------------------------------------------|
E ||------------------------------------------------------------------|
B ||-0-0-0---0-0-0---0-0-0-----------0-0-0---0-0-0---0-0-0-1-0-0-4-4--|
F#||-0-0-0---0-0-0---0-0-0-5-----6-6-0-0-0---0-0-0---0-0-0-1-0-0-4-4--|
B ||-0-0-0---0-0-0---0-0-0---0-0-----0-0-0---0-0-0---0-0-0-1-0-0-4-4--|
     . . .   . . .   . . .   . .     . . .   . . .   . . .   . .


Guitar 1/2:
C#||-------------------------------------------|
G ||-------------------------------------------|
E ||-------------------------------------------|
B ||-----0-0----0-0----0-0----0-0-xx--xx--xxx--|
F#||--00-0-0-00-0-0-00-0-0-00-0-0-xx--xx--xxx--|
B ||--00-0-0-00-0-0-00-0-0-00-0-0-xx--xx--xxx--|
      ..     ..     ..     ..

C#||-----------------------------------------|
G ||-----------------------------------------|
E ||-----------------------------------------|
B ||-----0-0----0-0----0----8-8----7-7----7--|
F#||--00-0-0-00-0-0-00-0-00-8-8-00-7-7-00-7--|
B ||--00-0-0-00-0-0-00-0-00-8-8-00-7-7-00-7--|
      ..     ..     ..   ..     ..     ..

C#||----------------------------------------|
G ||----------------------------------------|
E ||----------------------------------------|
B ||-----0-0----0-0----0-0----0-0-----------|
F#||--00-0-0-00-0-0-00-0-0-00-0-0-00000000--|
B ||--00-0-0-00-0-0-00-0-0-00-0-0-00000000--|
      ..     ..     ..     ..     ........

C#||-----------------------------------------|
G ||-----------------------------------------|
E ||-----------------------------------------|
B ||-----0-0----0-0----0----8-8----7-7----7--|
F#||--00-0-0-00-0-0-00-0-00-8-8-00-7-7-00-7--|
B ||--00-0-0-00-0-0-00-0-00-8-8-00-7-7-00-7--|
      ..     ..     ..   ..     ..     ..


Interlude
Guitar 1:
C#||---------------------------------------|
G ||---------------------------------------|
E ||--7-7-7-7-7-7-7-7-9-9-9-9-10-10-10-10--|
B ||--x-x-x-x-x-x-x-x-x-x-x-x-x--x--x--x---|
F#||--5-5-5-5-5-5-5-5-7-7-7-7-8--8--8--8---|
B ||---------------------------------------|



Chorus
Guitar 1:
C#||-------------------------------------------|
G ||-------------------------------------------|
E ||--14-14-14-14-14-14-14-14-9-9-9-9-9-9-9-9--|
B ||--x--x--x--x--x--x--x--x--x-x-x-x-x-x-x-x--|
F#||--12-12-12-12-12-12-12-12-7-7-7-7-7-7-7-7--|
B ||-------------------------------------------|


C#||----------------------------------------------------------------------------------------|
G ||----------------------------------------------------------------------------------------|
E ||--7-7-7-7-7-7-7-15--15-15-15-15-15-15-15-10-10-10-10-10-10-10-14--14-14-14-14-14-14-14--|
B ||--x-x-x-x-x-x-x-x---x--x--x--x--x--x--x--x--x--x--x--x--x--x--x---x--x--x--x--x--x--x---|
F#||--5-5-5-5-5-5-5-13--13-13-13-13-13-13-13-8--8--8--8--8--8--8--12--12-12-12-12-12-12-12--|
B ||----------------------------------------------------------------------------------------|


C#||---------------------------------------------------------------------------------------|
G ||---------------------------------------------------------------------------------------|
E ||--15-15-15-15-15-15-15-10--10-10-10-10-10-10-17-17-17-17-17-17-17-7--7-7-15--15-15-15--|
B ||--x--x--x--x--x--x--x--x---x--x--x--x--x--x--x--x--x--x--x--x--x--x--x-x-x---x--x--x---|
F#||--13-13-13-13-13-13-13-8---8--8--8--8--8--8--15-15-15-15-15-15-15-5--5-5-13--13-13-13--|
B ||---------------------------------------------------------------------------------------|


C#||-----------------------------------------|
G ||-----------------------------------------|
E ||--10-10-10-10-10-10-10-9--9-9-5--5-5-5---|
B ||--x--x--x--x--x--x--x--x--x-x-x--x-x-x---|
F#||--8--8--8--8--8--8--8--7--7-7-3--3-3-3---|
B ||-----------------------------------------|


Guitar 2:
C#||--------------------|
G ||--------------------|
E ||--------------------|
B ||--33333337-7777777--|
F#||--33333337-7777777--|
B ||--33333337-7777777--|


C#||-----------------------------------|
G ||-----------------------------------|
E ||-----------------------------------|
B ||-00000008-888888833333337-7777777--|
F#||-00000008-888888833333337-7777777--|
B ||-00000008-888888833333337-7777777--|


C#||----------------------------------------------------------|
G ||----------------------------------------------------------|
E ||-------------------5555555------5-555---------------------|
B ||--88888883-3333333-5555555-0-00-5-555---88888887-773-333--|
F#||--88888883-3333333-3333333-0-00-3-333---88888887-773-333--|
B ||--88888883-3333333---------0-00---------88888887-773-333--|



Outro
Guitar 1:
C#||------------------8-8-8-8-5-5-5-5--|------------------8-8-8/10-5-5-5-5--|
G ||--6/8-8-8-8\6-6-6------------------|--6/8-8-8-8\6-6-6-------------------|
E ||-----------------------------------|------------------------------------|
B ||-----------------------------------|------------------------------------|
F#||-----------------------------------|------------------------------------|
B ||-----------------------------------|------------------------------------|


C#||------------------8-8-8-8-5-5-5-5--|--3---3---3---3---0---0---0---0---------|
G ||--6/8-8-8-8\6-6-6------------------|----6---6---6---6---6---6---6-----------|
E ||-----------------------------------|--------------------------------5-5/7~--|
B ||-----------------------------------|----------------------------------------|
F#||-----------------------------------|----------------------------------------|
B ||-----------------------------------|----------------------------------------|


Guitar 2:
C#||--------------------------------------|
G ||--------------------------------------|
E ||--------------------------------------|
B ||--0000000088888888333333337777777777--|
F#||--0000000088888888333333337777777777--|
B ||--0000000088888888333333337777777777--|


C#||------|
G ||------|
E ||------|
B ||--0~--|
F#||--0~--|
B ||--0~--|



Tablature Legend
----------------
 h   - hammer-on
 p   - pull-off
 b   - bend
 r   - release bend
 *   - pinch harmonic
 '   - natural harmonic
 x   - mute note
 .   - palm mute
 /   - slide down
 \   - slide up
Tap to rate this tab
 
# A B C D E F G H I J K L M N O P Q R S T U V W X Y Z