Guitaretab - guitar tabs
Song name
# A B C D E F G H I J K L M N O P Q R S T U V W X Y Z

A Day To Remember - All I Want tab

All I Want 			Tab By: Jacob Weiss
A Day To Remember
Drop C

Intro
E---------------------------------------------------------------------------|
B---------------------------------------------------------------------------|
G-12-12-12-12-12-12-12\7--9-9-9-9-9-9-9-9----5-5-5-5-5-5-5-5--7-7-7-7-7-7-7-|
D-x--x--x--x--x--x--x-\x--x-x-x-x-x-x-x-x----x-x-x-x-x-x-x-x--x-x-x-x-x-x-x-|
A-10-10-10-10-10-10-10\5--7-7-7-7-7-7-7-7----3-3-3-3-3-3-3-3--5-5-5-5-5-5-5-|
E---------------------------------------------------------------------------|

Guitar2 Plays this lil riff thing
E-------------------------------------------------|
B---13p12------------13p12-----------10h12p10-----|
G--------12-14p12---------12-14p12-----------12---|
D----------------14---------------14--------------|
A-------------------------------------------------|
E-------------------------------------------------|

0:22	Out Loud, I like to Keep Things Honest…
Guitar 1
E-----------------------------------------------------------|
B-----------------------------------------------------------|
G----------------9------------------------------------------|
D-----------x--play this note over till pre chorus----------|
A----------------7------------------------------------------|
E-PICKSLIDE-------------------------------------------------|



Pre-Chorus   
 0:35	Let’s Leave No Words Unspoken…
E-----------------------------------------------------------------------|
B-----------------------------------------------------------------------|
G----5---------------7----------------------5---------------7-----------|
D----5-x8----5-------7-x8----2--------------5-x8----3-------7-x8--------|
A----3-------5-x8----5-------2-x8-----------3-------3-x8----5-----------|
E------------5---------------2----------------------3-------------------|

"""Chorus    0:48   All I Want Is A Place To Call My Own…
E------------------------------------------------------|
B------------------------------------------------------|
G----------------------7--------5---------7\-----------|
D----2--------5--------7-x16----5--x8-----7\-----------|
A----2-x16----5-x16----5--------3---------5\-----------|
E----2--------5----------------------------------------|

Intro
E---------------------------------------------------------------------------|
B---------------------------------------------------------------------------|
G-12-12-12-12-12-12-12\7--9-9-9-9-9-9-9-9----5-5-5-5-5-5-5--7-7-7-7-7-7-7-7-|
D-x--x--x--x--x--x--x-\x--x-x-x-x-x-x-x-x----x-x-x-x-x-x-x-x--x-x-x-x-x-x-x-|
A-10-10-10-10-10-10-10\5--7-7-7-7-7-7-7-7----3-3-3-3-3-3-3-3--5-5-5-5-5-5-5-|
E---------------------------------------------------------------------------|


1:12
Version 1    	Still got something left to prove…
E---------------------------------------------------------------------|
B---------------------------------------------------------------------|
G---------------------------------------------------------------------|
D---------------------------------------------------------------------|
A---2-2-2-2-2-2-2-2--2-2-2-2-2-2-2-2---10-10-10-10-10-10-10-10--------|
E---2-2-2-2-2-2-2-2--2-2-2-2-2-2-2-2---10-10-10-10-10-10-10-10--------|
    . . . . . . . .  . . . . . . . .   .  .  .  .  .  .  .  .

E------------------------------------------------------------|
B------------------------------------------------------------|
G------------------------------------------------------------|
D------------------------------------------------------------|
A---12-12-12-12-12-12-12-12-------0-0-0-0-0-0-0-0------------|
E---12-12-12-12-12-12-12-12-------0-0-0-0-0-0-0-0------------| 2X
    .  .  .  .  .  .  .  .        . . . . . . . .

[ Tab from: http://www.guitaretab.com/a/a-day-to-remember/256511.html ]
"""Pre-Chorus"""      1:24      Let's leave no words unspoken… 
E---------------------------------------------------------------------------|
B---------------------------------------------------------------------------|
G----5---------------7----------------------5---------------7------7--------|
D----5-x8----5-------7-x8----2--------------5-x8----3-------7-x8---7-x8-----|
A----3-------5-x8----5-------2-x8-----------3-------3-x8----5------5--------|
E------------5---------------2----------------------3-----------------------|

"""Chorus"""    1:36	All I Want Is a Place To Call My own
E-----------------------------------------------------|
B-----------------------------------------------------|
G----------------------7--------5------/--7-----------|
D----2--------5--------7-x16----5--x8--/--7-x8--------|
A----2-x16----5-x16----5--------3------/--5-----------|
E----2--------5---------------------------------------|

E-----------------------------------------------------|
B-----------------------------------------------------|
G----------------------7--------5---------7\----------|
D----2--------5--------7-x16----5--x8-----7\----------|
A----2-x16----5-x16----5--------3---------5\----------|
E----2--------5---------------------------------------|






"""Bridge"""    2:00
If You Take It from ME
E--------------------------------------------------|
B--------------------------------------------------|
G----9-9-9---8-8-8-----------5-5-5-5/7--7-7--------|
D----x-x-x---x-x-x---0-0-0---x-x-x-x/x--x-x--------|   x3
A----7-7-7---6-6-6---0-0-0---3-3-3-3/5--5-5--------|
E--------------------0-0-0-------------------------|



E--------------------------------------------------------|
B----------------------------------------e=eleven--------|
G----9-9-9-9-9-9-9-9--e-e-e-e-e-e-e-e--------------------|
D----x-x-x-x-x-x-x-x--x-x-x-x-x-x-x-x--------------------|
A----7-7-7-7-7-7-7-7--9-9-9-9-9-9-9-9--------------------|
E--------------------------------------------------------|

Interlude Part 2/Bridge Part 2   2:12 
E---------------------------------------------------------------------------|
B---------------------------------------------------------------------------|
G---------------------5-5-5-5-------------------------------5-5-5-5--7-7-7--|
D---222---111---000---5-5-5-5-0-0-0-------2~----1~----0~----5-5-5-5--7-7-7--|
A---222---111---000---3-3-3-3-0-0-0-------2~----1~----0~----3-3-3-3--5-5-5--|
E---222---111---000-----------0-0-0-------2~----1~----0~--------------------|

E---------------------------------------------------------------------------|
B-------------------------------------------------------t=10----------------|
G----------------------5-5-5-5----------------------------------------------|
D----222---111---000---5-5-5-5-0-0-0---7-7-7-7-7-7-7-7/t-t-t-t-t-t-t-t--0---|
A----222---111---000---3-3-3-3-0-0-0---7-7-7-7-7-7-7-7/t-t-t-t-t-t-t-t--0---|
E----222---111---000-----------0-0-0---7-7-7-7-7-7-7-7/t-t-t-t-t-t-t-t--0---|

FAAAAAAAAAAAAAAAADE (bass only) {So let's get back to when everything seemed perfect.}
Chorus    2:36 All I Want Is A Place To Call My Own
E-----------------------------------------------------|
B-----------------------------------------------------|
G----------------------7--------5------/--7-----------|
D----2--------5--------7-x16----5--x8--/--7-x8--------|
A----2-x16----5-x16----5--------3------/--5-----------|
E----2--------5---------------------------------------|

E-----------------------------------------------------|
B-----------------------------------------------------|
G----------------------7--------5---------7\----------|
D----2--------5--------7-x16----5--x8-----7\----------|
A----2-x16----5-x16----5--------3---------5\----------|
E----2--------5---------------------------------------|

Play the Interlude E-----------------|
One More Time      B-----------------|
And End ON         G---7~~~~~~~~-----|
                   D---7~~~~~~~~-----|
                   A---5~~~~~~~~-----|
                   E-----------------|
Related for All I Want tab
All I Want chords by A Day To Remember