Song name
# A B C D E F G H I J K L M N O P Q R S T U V W X Y Z

A Day To Remember - If It Means A Lot To You tab

ok i really dont know the intro... i got a good idea of it but im not too sure.
 This is my first tab so dont get to mad if its wrong. Comment and Rate!!
Verse1:

D----------------------------------------------------------------------------|
A----------------------------------------------------------------------------|
F-2-2-2-2-2-2-2-2---5-5-5-55-5-5---------------------------------------------|
C-2-2-2-2-2-2-2-2---5-5-5-55-5-5---------------------------------------------|
G-0-0-0-0-0-0-0-0---3-3-3-33-3-3---------------------------------------------|
C----------------------------------------------------------------------------|

D--------------------------------------------------------------------------|
A--------------------------------------------------------------------------|
F--2-2-2-2-2-2-2-2---5-5-5-55-5-5---7-7-77-7-------------------------------|
C--2-2-2-2-2-2-2-2---5-5-5-55-5-5---7-7-77-7-------3x----------------------|
G--0-0-0-0-0-0-0-0---3-3-3-33-3-3---5-5-55-5-------------------------------|
C--------------------------------------------------------------------------|

Pre-Chorus:

D---------------------------------------------------------------------------|
A---------------------------------------------------------------------------|
F---------------------------------------------------------------------------|
C--3-3-3-3-3-3-3-3\5-5-5-5-5-5\7-7-7-7-7-7-7\10-10-10-10--------------------|
G---------------------------------------------------------------------------|
C---------------------------------------------------------------------------|
  ................ ........... .............

Chorus:

D---------------------------------------------------------------------------|
A---------------------------------------------------------------------------|
F---------------------------------------------------------------------------|
C--10-10-10-10-10-10--5-5-5-5-5-5--7-7-7-7-7-7--3-3-3-3-3-3-3---------------|
D--10-10-10-10-10-10--5-5-5-5-5-5--7-7-7-7-7-7--3-3-3-3-3-3-3---------------|
C--10-10-10-10-10-10--5-5-5-5-5-5--7-7-7-7-7-7--3-3-3-3-3-3-3---------------|

D---------------------------------------------------------------------------|
A---------------------------------------------------------------------------|
F---------------------------------------------------------------------------|
C--10-10-10-10-10-10--5-5-5-5-5-5--7-7-7-7-7-7--3-3-3-3-3-3-3--5-5-5-5------|
G--10-10-10-10-10-10--5-5-5-5-5-5--7-7-7-7-7-7--3-3-3-3-3-3-3--5-5-5-5------|
C--10-10-10-10-10-10--5-5-5-5-5-5--7-7-7-7-7-7--3-3-3-3-3-3-3--5-5-5-5------|

Verse2:

                          REPEAT FIRST VERSE

Pre-Chorus 2x



Chorus


Bridge:

D---------------------------------------------------------------------------|
A---------------------------------------------------------------------------|
F---------------------------------------------------------------------------|
C----7-7-----3-3-----7-7-----5-5-----7-7------------------------------------|
D----7-7-----3-3-----7-7-----5-5-----7-7------------------------------------|
C----7-7-----3-3-----7-7-----5-5-----7-7------------------------------------|


Build Up:

D---------------------------------------------------------------------------|
A---------------------------------------------------------------------------|
F---------------------------------------------------------------------------|
C--3-3-3-3-3-3-3-3\5-5-5-5-5-5-5\7-7-7-7-7-7-7-7/5-5-5-5-5-5-5--------------|
D--3-3-3-3-3-3-3-3\5-5-5-5-5-5-5\7-7-7-7-7-7-7-7/5-5-5-5-5-5-5--------------|
C--3-3-3-3-3-3-3-3\5-5-5-5-5-5-5\7-7-7-7-7-7-7-7/5-5-5-5-5-5-5--------------|
  ............... ............. ............... ...

Outro/End:

D---------------------------------------------------------------------------|
A---------------------------------------------------------------------------|
F---------------------------------------------------------------------------|
C--3-3-3-3-3-3-3-3\5-5-5-5-5-5-5-5\7-7-7-7-7-7-7\10-1010-10-1010------------|
G--3-3-3-3-3-3-3-3\5-5-5-5-5-5-5-5\7-7-7-7-7-7-7\10-1010-10-1010----4x------|
C--3-3-3-3-3-3-3-3\5-5-5-5-5-5-5-5\7-7-7-7-7-7-7\10-1010-10-1010------------|

OK, hope you liked it.

RATE AND COMMENT!!!
Tap to rate this tab
 
# A B C D E F G H I J K L M N O P Q R S T U V W X Y Z