Song name
# A B C D E F G H I J K L M N O P Q R S T U V W X Y Z

A Day To Remember - When 3s A Crowd tab

d -0---0-7-0-5p4p0-2h4p0------------------------------------------|
a -5--5-----5-----------------------------------------------------|
f#-x--------------------------------------------------------------|
d -0---------------------2-222-5-5555-----------------------------|   X2
a -0---------------------2-222-5-5555-----------------------------|
D -0---------------------2-222-5-5555-----------------------------|

The chorus and riffs in between use these three chords, just listen to the song to find 
the rhythm:

d ------------------------------|
a ------------------------------|
f#------------------------------|
d -0--------2--------5----------|
a -0--------2--------5----------|
D -0--------2--------5----------|
Tap to rate this tab
 
# A B C D E F G H I J K L M N O P Q R S T U V W X Y Z