A Day To Remember - Im Made Of Wax Larry What Are You Made Of tab

I didn't tab this myself, just transcribed the Drop D tab to Drop C, i don't take any credit.

Drop C

Key
(10)10's Not 1's, there are no 1's
(X) Mutes.
(.) Palm Mutes.
(^) Bend String.
(~) Hold Note.

Intro (0:00)

D:----------------------------------------------------------------------|
A:----------------------------------------------------------------------|
F:------------------------------------5555555555555555------------------|
C:-77777777777777777-3333333333333333-5555555555555555-5555555555555555-|
G:-77777777777777777-3333333333333333-3333333333333333-5555555555555555-|
C:-77777777777777777-3333333333333333------------------5555555555555555-|

Verse 1 (0:11)

D:-------------------------------------------------------------|
A:-------------------------------------------------------------|
F:------------------------------------------------77x77x-------|
C:-1010x1010x1010x1010x-99x99x99x99x-13x13x13x13x-77x77x-99x99-|
G:--7-7x-7-7x-7-7x-7-7x-66x66x66x66x-13x13x13x13x-55x59x-99x99-|
C:--7-7x-7-7x-7-7x-7-7x-66x66x66x66x-13x13x13x13x--------99x99-|

Pre Chorus 1 (0:24)

D:------------------------------------------|
A:------------------------------------------|
F:------------------------------------------|
C:-777-10101010-66666666-333333333-66666666-|
G:-777-10101010-66666666-333333333-66666666-|
C:-777-10101010-66666666-333333333-66666666-|

D:------------------------------------------|
A:------------------------------------------|
F:------------------------------------------|
C:-777-10101010-66666666-333333333-66666666-|
G:-777-10101010-66666666-333333333-66666666-|
C:-777-10101010-66666666-333333333-66666666-|
PM:--------------------------------......---|

Chorus 1 (0:36)

D:----------------------------------------------------------------------|
A:----------------------------------------------------------------------|
F:------------------------------------5555555555555555------------------|
C:-77777777777777777-3333333333333333-5555555555555555-5555555555555555-|
G:-77777777777777777-3333333333333333-3333333333333333-5555555555555555-|
C:-77777777777777777-3333333333333333------------------5555555555555555-|

(0:47)

D:-------------4------|
A:--------------------|
F:-55x555x555x5-------|
C:-55x555x555x5-------|
G:-33x333x333x3-------|
C:--------------------|

Verse 2 (0:51)

D:--------------------------------------------------------------|
A:--------------------------------------------------------------|
F:-----------------------------------55x55x55x55x-77x77x--------|
C:-1010x1010x1010x1010x-99x99x99x99x-55x55x55x55x-77x77x-99x99x-|
G:--7-7x-7-7x-7-7x-7-7x-66x66x66x66x-33x33x33x33x-55x55x-99x99x-|
C:--7-7x-7-7x-7-7x-7-7x-66x66x66x66x---------------------99x99x-|

Pre Chorus 2 (1:03)

D:------------------------------------------|
A:------------------------------------------|
F:------------------------------------------|
C:-777-10101010-66666666-333333333-66666666-|
G:-777-10101010-66666666-333333333-66666666-|
C:-777-10101010-66666666-333333333-66666666-|

D:------------------------------------------|
A:------------------------------------------|
F:------------------------------------------|
C:-777-10101010-66666666-333333333-66666666-|
G:-777-10101010-66666666-333333333-66666666-|
C:-777-10101010-66666666-333333333-66666666-|
PM:----------------------.........-........-|

Chorus 2 (1:15)

D:----------------------------------------------------------------------|
A:----------------------------------------------------------------------|
F:------------------------------------5555555555555555------------------| (x2)
C:-77777777777777777-3333333333333333-5555555555555555-5555555555555555-|
G:-77777777777777777-3333333333333333-3333333333333333-5555555555555555-|
C:-77777777777777777-3333333333333333------------------5555555555555555-|

Bridge (1:39)

D:--------------------------------------------------------------|
A:--------------------------------------------------------------|
F:-----(bass-line)-----(bass-line)------------------------------|
C:-777-------------777-------------7~-----777-3333-66-----------|  
G:-777-------------777-------------7~-----777-3333-66-----------|
C:-777-------------777-------------7~-----777-3333-66-----------|
PM:---------------------------------------...-....-..-----------|

Breakdown (1:53)

D:-------------------------------------------|
A:-------------------------------------------|
F:-------------------------------------------|
C:-777-10101010-666666666-777-3333-666666666-| (x2)
G:-777-10101010-666666666-777-3333-666666666-|
C:-777-10101010-666666666-777-3333-666666666-|

D:---------------------------------------------|
A:---------------------------------------------|
F:---------------------------------------------|
C:---------------------------------------------|
G:---------------------------------------------|
C:-777-10101010-6666-22222-777-3333-6666-22222-|

D:---------------------------------------|
A:---------------------------------------|
F:---------------------------------------|
C:-77~-1010~-66~-22222-77~-33~-55~-22222-|
G:-77~-1010~-66~-22222-77~-33~-55~-22222-|
C:-77~-1010~-66~-22222-77~-33~-55~-22222-|

Chorus 3 (2:23)

D:---------------------------------------------------------------------------|
A:---------------------------------------------------------------------------|
F:-----------------------------------------5555555555555555------------------|
C:-5-7-57-57-577-10101010-3333333333333333-5555555555555555-5555555555555555-|
G:------------------------3333333333333333-3333333333333333-5555555555555555-|
C:------------------------3333333333333333------------------5555555555555555-|
   ^^^^^^^^^^^^^^^^^^
  (I think this is the leads part but rhythm can do it as well)

D:----------------------------------------------------------------------|
A:----------------------------------------------------------------------|
F:------------------------------------5555555555555555------------------|
C:-77777777777777777-3333333333333333-5555555555555555-5555555555555555-|
G:-77777777777777777-3333333333333333-3333333333333333-5555555555555555-|
C:-77777777777777777-3333333333333333------------------5555555555555555-|

Outro

D:--------------------------|
A:--------------------------|
F:--------------------------|
C:-57-57-57-577-10101010--7-|
G:------------------------7-|
C:------------------------7-|

Intro
Verse 1
Pre Chorus 1
Chorus 1
Verse 2
Pre Chorus 2
Chorus 2
Bridge
Breakdown
Chorus 3
Outro
Tap to rate this tab
 
# A B C D E F G H I J K L M N O P Q R S T U V W X Y Z