Song name
# A B C D E F G H I J K L M N O P Q R S T U V W X Y Z

A Day To Remember - Since U Been Gone tab

not so accurate.... it is in DROP D.. kinda higher than DROP C.. so here it is!!

whole into and first part of the verse!!!

e------------------------------------------------|
B------------------------------------------------|
G------------------------------------------------|
D------------------------------------------------|
A------------------------------------------------|
D-------0000000000000000000000000----------------|

2nd part of the verse:
e--------------------------------------------------|
B--------------------------------------------------|
G--------------------------------------------------|
D---xx-000000000000000000----777777777777777777777-|
A---xx-000000000000000000----777777777777777777777-|
D---xx-000000000000000000----777777777777777777777-|


e--------------------------------------------------|
B--------------------------------------------------|
G--------------------------------------------------|
D------999999999999999999----555555555555555555555-|
A------999999999999999999----555555555555555555555-|
D------999999999999999999----555555555555555555555-|



Pre chorus
e--------------------------------------------------|
B--------------------------------------------------|
G--------------------------------------------------|
D------999999999999999999----777777777777777777777-|
A------999999999999999999----777777777777777777777-|
D------999999999999999999----777777777777777777777-|


e------------------------------------------------|
B------------------------------------------------|
G------------------------------------------------|
D------5-5---------------------------------------|
A------5-5---------------------------------------|
D------5-5---------------------------------------|

Chorus:
e------------------------------------------------|
B------------------------------------------------|
G------------------------------------------------|
D------999999999999999999----12X16!!!------------|
A------999999999999999999----12x16!!!------------|
D------999999999999999999----12x16!!!------------|

e--------------------------------------------------|
B--------------------------------------------------|
G--------------------------------------------------|
D------555555555555555555----777777777777777777777-|
A------555555555555555555----777777777777777777777-|
D------555555555555555555----777777777777777777777-|

e--------------------------------------------------|
B--------------------------------------------------|
G--------------------------------------------------|
D------999999999999999999----777777777777777777777-|
A------999999999999999999----777777777777777777777-|
D------999999999999999999----777777777777777777777-|

e------------------------------------------------|
B------------------------------------------------|
G------------------------------------------------|
D------555555555---------------------------------|
A------555555555---------------------------------|
D------555555555---------------------------------|

After the chorus( experimental,,, BUWAHAHAH :)) )
e------------------------------------------------|
B------------------------------------------------|
G------------------------------------------------|
D------00-9---00-9----00-9---00-9----------------|
A------00-9---00-9----00-9---00-9----------------|
D------00-9---00-9----00-9---00-9----------------|

Verse 2
e--------------------------------------------------|
B--------------------------------------------------|
G--------------------------------------------------|
D------000000000000000000----777777777777777777777-|
A------000000000000000000----777777777777777777777-|
D------000000000000000000----777777777777777777777-|


e--------------------------------------------------|
B--------------------------------------------------|
G--------------------------------------------------|
D------999999999999999999----555555555555555555555-|
A------999999999999999999----555555555555555555555-|
D------999999999999999999----555555555555555555555-|


e------------------------------------------------|
B------------------------------------------------|
G------------------------------------------------|
D------00-00-00-00-00-00----77-77-77-77-77-77----|
A------00-00-00-00-00-00----77-77-77-77-77-77----|
D------00-00-00-00-00-00----77-77-77-77-77-77----|


e------------------------------------------------|
B------------------------------------------------|
G------------------------------------------------|
D------99-99-99-999999999------------------------|
A------99-99-99-999999999------------------------|
D------99-99-99-999999999------------------------|

Chorus

Bridge:
e--------------------------------------------------|
B--------------------------------------------------|
G--------------------------------------------------|
D------999999999999999999----777777777777777777777-|
A------999999999999999999----777777777777777777777-|
D------999999999999999999----777777777777777777777-|


e------------------------------------------------|
B------------------------------------------------|
G------------------------------------------------|
D------55555555---------12x16--------------------|
A------55555555---------12x16--------------------|
D------55555555-(slide)/12x16--------------------|

solo thingy:)
e------------------------------------------------|
B------------------------------------------------|
G------------------------------------------------|
D------------------------------------------------|
A-----------------8888\--------------------------|
D------8888-99-8\--------------------------------|
Repeat that 4 times...:)



then chorus again:)


then outro:
e------------------------------------------------|
B------------------------------------------------|
G------------------------------------------------|
D------------------------------------------------|
A------------------------------------------------|
D------0000000000000000000000--------------------|



That's all!!!!!! :))
Tap to rate this tab
 
# A B C D E F G H I J K L M N O P Q R S T U V W X Y Z