Song name
# A B C D E F G H I J K L M N O P Q R S T U V W X Y Z

A Day To Remember - This Is The House That Doubt Built tab

I know it's not exactly how ADTR plays it, but i'm pretty sure the chords are correct 
and it's a good structure if you're looking to play it acoustically or by yourself.

Didn't put in strum pattern because they're pretty easy,
and this song is pretty fun to make your own pattern to.

Intro (x2) end on palm mute

e--------------|
b-0------------|
g-7------------|
d-9--0--0--0---|
a-9--7--5--6---|
d-0--9--5--8---|

Verse (x2) virtually the same chords, but a fuller sound to assist the vocals

e--------------|
b-3------------|
g-4------------|
d-4--2--5--0---|
a-2--2--5--6---|
d-0--2--5--8---|

Pre-Chorus (x2) second time, only do first two chords, end on mute

e---------------|
b---------------|
g-7--9--11--7---|
d-5--7--9---0---|
a-5--7--9---0---|
d-5--7--9---0---|

Chorus

e------------------------|
b------------------------|
g-7--9-9--11-\9--7--/9---|
d-0--7-8--9--\7--5--/7---|
a-0--7-8--9--\7--5--/7---|
d-0--7-8--9--\7--5--/7---|

end with
      . . .
e-------------|
b-------------|
g-11--9-9-9---|
d-9---7-7-7---|
a-9---7-7-7---|
d-9---7-7-7---|

2nd Verse (x2) First Time, Palm mute, Second Time, Open

e--------------|
b--------------|
g-4------------|
d-4--------0---|
a-2--2--5--6---|
d-0--2--5--8---|

Pre-Chorus (x2) second time, only do first two chords, end on mute

e---------------|
b---------------|
g-7--9--11--7---|
d-5--7--9---0---|
a-5--7--9---0---|
d-5--7--9---0---|

Chorus (x2)

e------------------------|
b------------------------|
g-7--9-9--11-\9--7--/9---|
d-0--7-8--9--\7--5--/7---|
a-0--7-8--9--\7--5--/7---|
d-0--7-8--9--\7--5--/7---|

Bridge (x2) in the song, there is a palm muted D chug between each chord the second time around,
your choice.

e-----------------|
b-----------------|
g-11--7--7--9-9---|
d-9---5--0--7-8---|
a-9---5--0--7-8---|
d-9---5--0--7-8---|

Chorus
         . . .
e----------------|
b----------------|
g-11~----9-9-9---|
d-9~-----7-7-8---|
a-9~-----7-7-8---|
d-9~-----7-7-8---|

e-----------------|
b-----------------|
g-11--\9--7--/9---|
d-9---\7--5--/7---|
a-9---\7--5--/7---|
d-9---\7--5--/7---|

2nd Time (x2)

e------------------------|
b------------------------|
g-7--9-9--11-\9--7--/9---|
d-0--7-8--9--\7--5--/7---|
a-0--7-8--9--\7--5--/7---|
d-0--7-8--9--\7--5--/7---|

End

e-------|
b-------|
g-11~---|
d-9~----|
a-9~----|
d-9~----|

thanx :) Comments and Corrections appreciated.
Tap to rate this tab
 
# A B C D E F G H I J K L M N O P Q R S T U V W X Y Z