A Day To Remember - Monument Acoustic tab

A Day to Remember
Monument (Acoustic)

Tuning: Drop C (C G C F A D)

Tabbed by: Griff5516
e-mail: griffiep@dukes.jmu.edu


This is a tab for ADTR's more recent acoustic version of Monument (with Kevin
Skaff instead of Tom Denney). Hope it helps! email me with any questions


INTRO:

D |----------------------------------------------------------------------|
A |--3-3-3-5-5-5-3-3-3-5-5-5-5-5-5-5-3-3-3-5-5-5-3-3-3-5-5-5-------------|
F |--5-5-5-5-5-5-5-5-5-5-5-5-5-5-5-5-5-5-5-5-5-5-5-5-5-5-5-5-x-x-x-x-----|
C |----------------------------------------------------------x-x-x-x-----| x1
G |----------------------------------------------------------x-x-x-x-----|
C |----------------------------------------------------------x-x-x-x-----|

    ---------------------------------------------------------|
    ---------------------------------------------------------|
    ----------------------9-9-9-------7-7-7-7h9-9------------|
    --3------5------7-7-7-------7-7-7-------------10---------| x2
    --3-x16--5-x16--7-7-7-------7-7-7--------------8-x13-----|
    --3------5------7-7-7-------7-7-7--------------x---------|


VERSE:

D |-------------------------------------------------------------------------------------------|
A | ------------------------------------------------------------------------------------------|
F |-------------------------------------------------------------------------------------------|
C |--3-3-----3-3-----3-3-3-3-3-3-----3-3-----3-3-3-3-7-7-----7-7-----7-7-7-7-7-7-----7-7~-----| x1
G |--3-3-----3-3-----3-3-3-3-3-3-----3-3-----3-3-3-3-7-7-----7-7-----7-7-7-7-7-7-----7-7~-----|
C |--3-3-----3-3-----3-3-3-3-3-3-----3-3-----3-3-3-3-7-7-----7-7-----7-7-7-7-7-7-----7-7~-----|

   ----------------3---------------------|
   ------5---3h5---------5---3h5p3-------|
   --5-5---5-----5---5-5---5-------5-----|
   --------------------------------------|  x3
   --------------------------------------|
   --------------------------------------|
     . .   .     .   . .   .       .

   ----------------3-3-3-3-3-3-3-3-------|
   ------5---3h5---5-5-5-5-5-5-5-5-------|
   --5-5---5-----5-5-5-5-5-5-5-5-5-------|
   --------------------------------------|
   --------------------------------------|
   --------------------------------------|
     . .   .     .


CHORUS:

D |---------------------------------------------------------|
A |---------------------------------------------------------|
F |----------------------9-9-9-------7-7-7-7h9-9------------|
C |--3------5------7-7-7-------7-7-7-------------10---------| x2
G |--3-x16--5-x16--7-7-7-------7-7-7--------------8-x13-----|
C |--3------5------7-7-7-------7-7-7--------------x---------|


PRE-VERSE:

D |----------------------|
A |------3---5p3---3-----|
F |--5-5---5-----5-------|
C |----------------------| x3
G |----------------------|
C |----------------------|

    ----------------------|
    ------3---5p3---------|
    --5-5---5-----5-4-----|
    ----------------------|
    ----------------------|
    ----------------------|


VERSE 2:

D |----------------------------------------------------------------------|
A |----------------------------------------------------------------------|
F |----------------------------------------------------------------------|
C |--2-2-2-2-2-2-2-2-2-2-2-2-2-2-2-2-5-5-5-5-5-5-5-5-5-5-5-5-5-5-5-5-----| x2
G |--2-2-2-2-2-2-2-2-2-2-2-2-2-2-2-2-3-3-3-3-3-3-3-3-3-3-3-3-3-3-3-3-----|
C |--2-2-2-2-2-2-2-2-2-2-2-2-2-2-2-2-x-x-x-x-x-x-x-x-x-x-x-x-x-x-x-x-----|
      . .   . .   .   . .   . .       . .   . .   .   . .   . .

    --0-0-0-0-0-0-0-0-0-0-0-0-0-0-0-0-----|
    --3-3-3-5-5-5-3-3-3-5-5-5-5-5-5-5-----|
    --5-5-5-5-5-5-5-5-5-5-5-5-5-5-5-5-----|
    --------------------------------------| x3
    --------------------------------------|
    --------------------------------------|

    --0-0-0-0-0-0-0-0-3-3-3-3-3-3-3-3-----|
    --3-3-3-5-5-5-5-5-5-5-5-5-5-5-5-5-----|
    --5-5-5-5-5-5-5-5-5-5-5-5-5-5-5-5-----|
    --------------------------------------|
    --------------------------------------|
    --------------------------------------|

**Chorus plays through again**

PRE-VERSE 2:

D |----------------------------------------------|
A |----------------------------------------------|
F |----------------------------------------------|
C |--7-7-7-7-7-7-7-7-7-7-7-7-7-9-9-9-10-10-10-10-|
G |--5-5-5-5-5-5-5-5-5-5-5-5-5-7-7-7--8--8--8--8-|
C |--x-x-x-x-x-x-x-x-x-x-x-x-x-x-x-x--x--x--x--x-|

-------------------------------------------------------------|
-------------------------------------------------------------|
-------------------------------------------------------------|
10-10-10-10-10-10-10-10-10-10-10-10-7------5-----------------| x1
-8--8--8--8--8--8--8--8--8--8--8--8-7-x16--5-x16--15/--------|
-x--x--x--x--x--x--x--x--x--x--x--x-7------5------15/--------|
x-7------5------15/------------------------------------------|
      . . . . . . . . . . . . . . . .  .  .  .  .  .  .  .  .  .  .  .  .  .  .  .  . .      .

VERSE 3:

D |----------------------------------------------------------------------|
A |----------------------------------------------------------------------|
F |--5-5-5-5-5-5-5-5-5-5-5-5-5-4-4-4-4-5-5-5-5-5-5-7-7-7-7-7-7-7-7-7-----|
C |----------------------------------------------------------------------| x2
G |----------------------------------------------------------------------|
C |----------------------------------------------------------------------|
      . . . . . . . . . . . . . . . . . . . . . . . . . . . . . . . .

    ----------------3---------------------|
    ------3---5p3---------5---3h5p3-------|
    --4h5---5-----5---5-5---5-------4-----|
    --------------------------------------|  x8
    --------------------------------------|
    --------------------------------------|


BREAKDOWN:

D |-----------------------------------------------|
A |-----------------------------------------------|
F |-----------------------------------------------|
C |------------------------------7------5---------| x2
G |--0-0---0-0--0-2-3-3--3-3--15/7-x16--5-x16-----|
C |--0-0---0-0--0-2-3-3--3-3--15/7------5---------|

ENDING:

D |-----------------------------------------------|
A |---------------------------------------0~~-----|
F |--10~---9-/5-5~---5-/9-9~---9--7~---7--5~~-----|
C |--10~---9-/5-5~---5-/9-9~---9--7~---7--5~~-----| x1
G |---8~---7-/3-3~---3-/7-7~---7--5~---5--3~~-----|
C |---x~---x-/x-x~---x-/x-x~---x--x~---x--x~~-----|


Thats it, Please rate! Thanks!
Tap to rate this tab
 
# A B C D E F G H I J K L M N O P Q R S T U V W X Y Z