Song name
# A B C D E F G H I J K L M N O P Q R S T U V W X Y Z

A Day To Remember - Have Faith In Me Acoustic tab

Have Faith In Me (Acoustic)
A Day to Remember

Tuning: Drop B (B F# B E G# C#)

This is a tab for the acoustic version of Have Faith in Me by A Day to Remember. Hope it helps!

Intro/Verse:

B  |------------------------------------------|
F# |----10---10---10---10---8---8---7---7-----|
B  |--7----7----7----7----7---7---7-- 7-------|
E  |------------------------------------------| x11
G# |------------------------------------------|
C# |------------------------------------------|

Start the progression a 12th time through, but it's shortened leading up to the next part

Pre-chorus:

B  |----------------|
F# |----------------|
B  |----------------|
E  |--2-2-2--5-5-5--|
G# |--2-2-2--5-5-5--|
C# |--2-2-2--5-5-5--|
      . .    . .

Chorus:

B  |-------------------------------------------------|
F# |-------------------------------------------------|
B  |--7-7-7-7-7-14-14-14-14-14-14-14-14-14-14-14-----|
E  |--x-x-x-x-x--x--x--x--x--x--x--x--x--x--x--x-----| x2
G# |--5-5-5-5-5-12-12-12-12-12-12-12-12-12-12-12-----|
C# |-------------------------------------------------|

   ---------------------------------------------------------------------------------|
   ---------------------------------------------------------------------------------|
   --7-7-7-7-9/11/9/7--7-7-7-7-9/11/9/7-6-6-6-6-6-6-6-6-12-12-12-12-11-11-11-11-----|
   --x-x-x-x-x/-x/x/x--x-x-x-x-x/-x/x/x-x-x-x-x-x-x-x-x--x--x--x--x--x--x--x--x-----|
   --5-5-5-5-7/-9/7/5--5-5-5-5-7/-9/7/5-4-4-4-4-4-4-4-4-10-10-10-10--9--9--9--9-----|
   ---------------------------------------------------------------------------------|

Verse:

B  |-----------------------------------------------------|
F# |-----------------------------------------------------|
B  |-----------------------------------------------------|
E  |--9-9-9-9-9-9-9-9--0-0-0-0-0-5-5-5-5-2-2-2-5-5-5-----| x2
G# |--9-9-9-9-9-9-9-9--0-0-0-0-0-5-5-5-5-2-2-2-5-5-5-----|
C# |--9-9-9-9-9-9-9-9--0-0-0-0-0-5-5-5-5-2-2-2-5-5-5-----|
      . .   .     .          . .     .    . .   . .

That is basically how I strummed out this part in the video, but you can mess
around with the muted parts

-------------------------------------------------------------------------------------------------|
-------7-7-7-7-7-----7-7-7-7-7-----7-7-7-7-7---------------7-7-7-7-7-----7-7-7-7-7-----7-7-7-7-7-|
-------7-7-7-7-7-----7-7-7-7-7-----7-7-7-7-7---------------7-7-7-7-7-----7-7-7-7-7-----7-7-7-7-7-|
--9-9------------7-7-----------5-5-----------2-2--5-5--9-9-----------7-7-----------5-5-----------|
--9-9------------7-7-----------5-5-----------2-2--5-5--9-9-----------7-7-----------5-5-----------|
--9-9------------7-7-----------5-5-----------2-2--5-5--9-9-----------7-7-----------5-5-----------|

Pre-chorus:

B  |----------------|
F# |----------------|
B  |----------------|
E  |--2-2-2--5-5-5--|
G# |--2-2-2--5-5-5--|
C# |--2-2-2--5-5-5--|
      . .    . .

        **Chorus played twice, same way as above**

Bridge:

B  |-------------------------------------------------------------|
F# |-------------------------------------------------------------|
B  |--4-4-4--4-4-4-4-7-7--7-7-7-7-6-6--6-6-6-7-7-7-7-6-6-6-6-----|
E  |--x-x-x--x-x-x-x-x-x--x-x-x-x-x-x--x-x-x-x-x-x-x-x-x-x-x-----|
G# |--2-2-2--2-2-2-2-5-5--5-5-5-5-4-4--4-4-4-5-5-5-5-4-4-4-4-----|
C# |-------------------------------------------------------------|

   ---------------------------------------------------------------------|
   ---------------------------------------------------------------------|
   --4-4-4--4-4-4-4-7-7--7-7-7-7-9-9--9-9-9-14-14-14-14-14-14-14-14-----|
   --x-x-x--x-x-x-x-x-x--x-x-x-x-x-x--x-x-x--x--x--x--x--x--x--x--x-----|
   --2-2-2--2-2-2-2-5-5--5-5-5-5-7-7--7-7-7-12-12-12-12-12-12-12-12-----|
   ---------------------------------------------------------------------|

   -------------------------------------------------------------|
   -------------------------------------------------------------|
   --4-4-4--4-4-4-4-7-7--7-7-7-7-6-6--6-6-6-7-7-7-7-6-6-6-6-----|
   --x-x-x--x-x-x-x-x-x--x-x-x-x-x-x--x-x-x-x-x-x-x-x-x-x-x-----|
   --2-2-2--2-2-2-2-5-5--5-5-5-5-4-4--4-4-4-5-5-5-5-4-4-4-4-----|
   -------------------------------------------------------------|

   -------------------------------------------------------------|
   -------------------------------------------------------------|
   --4-4-4--4-4-4-4-4-4--4-4-4-4-6-6--6-6-6-6-6-6-6-7-7-7-7-----|
   --x-x-x--x-x-x-x-x-x--x-x-x-x-x-x--x-x-x-x-x-x-x-x-x-x-x-----|
   --2-2-2--2-2-2-2-2-2--2-2-2-2-4-4--4-4-4-4-4-4-4-5-5-5-5-----|
   -------------------------------------------------------------|


   ------------------------------------------|
   ----10---10---10---10---8---8---7---7-----|
   --7----7----7----7----7---7---7-- 7-------|
   ------------------------------------------| x4
   ------------------------------------------|
   ------------------------------------------|

   4th time through, progression is shortened, gradually pick lighter to give 'fade out' effect


         **Chorus played twice, same as before**


Ending:

B  |------|
F# |------|
B  |------|
E  |--5---|
G# |--4---|
C# |--x---|


This is the chord I play at the end of the song that's muted then progressively
loudens as the song ends.  Its not the chord played by Kevin in the live version,
but I couldn't figure out what the right chord was. So you can play this one if
you want, it definitely fits, but if it doesn't sound right to you, that's why…

Well that's it! hope it helped!
Tap to rate this tab
# A B C D E F G H I J K L M N O P Q R S T U V W X Y Z