Song name
# A B C D E F G H I J K L M N O P Q R S T U V W X Y Z

A Day To Remember - Your Way With Words Is Through Silence tab

--------------------------------------------------------------	 
  Your Way With Words Is Through Silence - A Day To Remember
--------------------------------------------------------------
Tabbed by: Kristyn Lee
Email: spot_the_village_loony_836@hotmail.com

Tuning: Drop C

Intro
D|---------------------------------------------------------|
A|---------------------------------------------------------|
F|---------------------------------------------------------|
C|---------------------10101010101010101010101010101010----|
G|---00000000-33333333-8-8-8-8-8-8-8-8-8-8-8-8-8-8-8-8-----|
C|---00000000-33333333-8-8-8-8-8-8-8-8-8-8-8-8-8-8-8-8-----|

D|---------------------------------------------------------|
A|---------------------------------------------------------|
F|---7777777777777777--------------------------------------|
C|---7777777777777777--10101010101010101010101010101010----|
G|---5555555555555555--8-8-8-8-8-8-8-8-8-8-8-8-8-8-8-8-----|
C|---------------------8-8-8-8-8-8-8-8-8-8-8-8-8-8-8-8-----|
0:10
Lead   x3
D|-----------------------------------------------------------|
A|---1313131313-1313131313-1313131313p11111111-1111111111----|
F|---1010101010-1010101010-1010101010-10101010-1010101010----|x3
C|-----------------------------------------------------------|
G|-----------------------------------------------------------|
C|-----------------------------------------------------------|
       x1
D|-----------------------------------------------------------|
A|---1010101010101010h13131313-------------------------------|
F|---1010101010101010-10101010-------------------------------|x1
C|-----------------------------------------------------------|
G|-----------------------------------------------------------|
C|-----------------------------------------------------------|
0:10
D|--------------------------------------------------------|
A|--------------------------------------------------------|
F|--------------------------------------------------------|
C|----------------------1010101010-1010101010-10101010----|
G|---00000-000h33-3333--8-8-8-8-8--8-8-8-8-8--8-8-8-8-----|
C|---00000-000h33-3333--8-8-8-8-8--8-8-8-8-8--8-8-8-8-----|
     
D|-----------------------------|
A|-----------------------------|
F|---77777-77777-7777----------|
C|---77777-77777-7777--10~~----|
G|---55555-55555-5555--8-~~----|
C|---------------------8-~~----|
0:19
Verse
D|------------------------------------------------------------|
A|------------------------------------------------------------|
F|------------------------------------------------------------|
C|------------------------------------------------------------|
G|---0-000000000000000-3-333333333333333-8-888888888888888----|
C|---0-000000000000000-3-333333333333333-8-888888888888888----|
       ...............   ...............   ...............

D|------------------------------------------|
A|------------------------------------------|
F|------------------------------------------|
C|------------------------------------------|
G|---10-101010101010101010101010101010------|
C|---10-101010101010101010101010101010------|
        . . . . . . . . . . . . . . . 
0:28
D|-------------------------------------------------------------------------|
A|-------------------------------------------------------------------------|
F|-------------------------------------------------------------------------|
C|-------------------------------------------------------------------------|
G|---0000000000000000-3333333333333333-8888888888888888-1010101010101010---|
C|---0000000000000000-3333333333333333-8888888888888888-1010101010101010---|
     ................ ................ ................ . . . . . . . .

D|-----------|   |---------|
A|-----------|   |---------|
F|----1010---|x12|---99----|x4
C|----x-x----|   |---xx----|
G|----8-8----|   |---77----|
C|-----------|   |---------|

0:38   "it'd break my heart..."
D|-----------------------------------------------------------------|
A|-----------------------------------------------------------------|
F|--------101010101010101010101010-----101010101010101010101010----|
C|--------x-x-x-x-x-x-x-x-x-x-x-x------x-x-x-x-x-x-x-x-x-x-x-x-----|
G|---8888-8-8-8-8-8-8-8-8-8-8-8-8-8888-8-8-8-8-8-8-8-8-8-8-8-8-----|
C|---8888-------------------------8888-----------------------------|

D|---------------------------------------------------------------------|
A|---------------------------------------------------------------------|
F|---------101010101010101010101010---------101010101010101010101010---|
C|---------x-x-x-x-x-x-x-x-x-x-x-x----------x-x-x-x-x-x-x-x-x-x-x-x----|
G|---00-00-8-8-8-8-8-8-8-8-8-8-8-8-10101010-8-8-8-8-8-8-8-8-8-8-8-8----|
C|---00-00-------------------------10101010----------------------------|

0:55
Left Guitar
D|-----------------------------------------------------------|
A|---13-11-10~--13-10-13-11-10------------------------------|
F|-----------------------------------------------------------|
C|-------------------------------------------------------------|
G|----------------------------------------------------------------|
C|------------------------------------------------------------------|
Right Guitar
D|------------------------|
A|------------------------|
F|------------------------|
C|-------10~------10~-----|
G|-----8--------8---------|
C|---8--------8-----------|

1:00
Chorus Rythem 
 "so lets not dwell on all the things we should have said..."
D|---------------------------------------------------------|
A|---------------------------------------------------------|
F|---------------------------------------------------------|
C|---------------------10101010101010101010101010101010----|
G|---00000000-33333333-8-8-8-8-8-8-8-8-8-8-8-8-8-8-8-8-----|
C|---00000000-33333333-8-8-8-8-8-8-8-8-8-8-8-8-8-8-8-8-----|
  "if piece by piece i could pick you up of my floor..."
D|---------------------------------------------------------|
A|---------------------------------------------------------|
F|---7777777777777777--------------------------------------|
C|---7777777777777777--10101010101010101010101010101010----|
G|---5555555555555555--8-8-8-8-8-8-8-8-8-8-8-8-8-8-8-8-----|
C|---------------------8-8-8-8-8-8-8-8-8-8-8-8-8-8-8-8-----|
"so lets not dwell on all the things we should have said..."
D|--------------------------------------------------------|
A|--------------------------------------------------------|
F|--------------------------------------------------------|
C|----------------------1010101010-1010101010-10101010----|
G|---00000-000h33-3333--8-8-8-8-8--8-8-8-8-8--8-8-8-8-----|
C|---00000-000h33-3333--8-8-8-8-8--8-8-8-8-8--8-8-8-8-----|
"if piece by piece i could pick you up of my floor..."
D|-----------------------------|
A|-----------------------------|
F|---77777-77777-7777----------|
C|---77777-77777-7777--10~~----|
G|---55555-55555-5555--8-~~----|
C|---------------------8-~~----|

Chorus Lead   x3
D|-----------------------------------------------------------|
A|---1313131313-1313131313-1313131313p11111111-1111111111----|
F|---1010101010-1010101010-1010101010-10101010-1010101010----|x3
C|-----------------------------------------------------------|
G|-----------------------------------------------------------|
C|-----------------------------------------------------------|
       x1
D|-----------------------------------------------------------|
A|---1010101010101010h13131313-------------------------------|
F|---1010101010101010-10101010-------------------------------|x1
C|-----------------------------------------------------------|
G|-----------------------------------------------------------|
C|-----------------------------------------------------------|

2nd Verse
D|------------------------------------------------------------|
A|------------------------------------------------------------|
F|------------------------------------------------------------|
C|------------------------------------------------------------|
G|---0-000000000000000-3-333333333333333-8-888888888888888----|
C|---0-000000000000000-3-333333333333333-8-888888888888888----|
       ...............   ...............   ...............
                                           guitar 2  x8
D|----------------------------------------|-------------|
A|----------------------------------------|----11p10----|
F|----------------------------------------|-------------|
C|----------------------------------------|-------------|
G|---10-101010101010101010101010101010----|-------------|
C|---10-101010101010101010101010101010----|-------------|
        . . . . . . . . . . . . . . . 
1:27
D|--------------------|------------------------------------|
A|--------------------|------------------------------------|
F|---101099----99-----|---121299----99-1212121212121212----|
C|---------1010-------|---------1010-----------------------|
G|--------------------|------------------------------------|
C|--------------------|------------------------------------|
     . . ... . ..         . . ... . .. 

1:37   "it'd break my heart..."
D|-----------------------------------------------------------------|
A|-----------------------------------------------------------------|
F|--------101010101010101010101010-----101010101010101010101010----|
C|--------x-x-x-x-x-x-x-x-x-x-x-x------x-x-x-x-x-x-x-x-x-x-x-x-----|
G|---8888-8-8-8-8-8-8-8-8-8-8-8-8-8888-8-8-8-8-8-8-8-8-8-8-8-8-----|
C|---8888-------------------------8888-----------------------------|

D|---------------------------------------------------------------------|
A|---------------------------------------------------------------------|
F|---------101010101010101010101010---------101010101010101010101010---|
C|---------x-x-x-x-x-x-x-x-x-x-x-x----------x-x-x-x-x-x-x-x-x-x-x-x----|
G|---00-00-8-8-8-8-8-8-8-8-8-8-8-8-10101010-8-8-8-8-8-8-8-8-8-8-8-8----|
C|---00-00-------------------------10101010----------------------------|


Repeat Chorus

Breakdown   x3
Right guitar
D|-----------------------------------------------------------------------|
A|-----------------------------------------------------------------------|
F|----------10-----------------------------------10-----------10---------|
C|----------x-(x11)------------------------------x-(x11)------x-(x11)----|
G|--00000---8-----00000-------------------88888--8------88888-8----------|
C|--00000---------00000-------------------88888---------88888------------|
    .....         .....                   .....         .....
Left Guitar
D|-----------------------------------------------------------------------|
A|-----------------------------------------------------------------------|
F|----------------------1010101099999999----------------------101010p99--|
C|----------------------x-x-x-x-xxxxxxxx---------------------------------|
G|--00000---------00000-8-8-8-8-88888888--88888---------88888------------|
C|--00000---------00000-------------------88888---------88888------------|
    .....         .....                   .....         .....
2:48
D|-------------------------|
A|-------------------------|
F|-------------------------|
C|-------------------------|
G|---88-77-1010~~---0~~----|
C|---88-77-1010~~---0~~----|

No Guitar 2:59 - 3:11


Repeat chorus x2

Repeat this a few times
D|---8p0-6p0-5p0-3p1----------|
A|----------------------------|
F|----------------------------|
C|----------------------------|
G|----------------------------|
C|----------------------------|

The End

************************************

| .   palm mute
| /   slide up
| \   slide down
| h   hammer-on
| p   pull-off
| ~   vibrato
| +   harmonic
| x   Mute note
| b   Bend
| pb  Pre-bend
| br  Bend release
| pbr Pre-bend release
| brb Bend release bend

************************************
Tap to rate this tab
# A B C D E F G H I J K L M N O P Q R S T U V W X Y Z