Song name
# A B C D E F G H I J K L M N O P Q R S T U V W X Y Z

A Day To Remember - Better Off This Way Acoustic tab

   I wonder if youll notice, if they lock me up and throw away the key
e|------0---------------------0--------------0----------------------0------|
B|------0---------------------0--------------0----------------------0------|
G|------6---------------------2--------------4----------------------4------|
D|------6---------------------2--------------4----------------------6------|
A|------4---------------------0--------------2----------------------6------|
E|------x---------------------x--------------x----------------------x------|



   Try to be open minded, youve got a lot to learn in the ways of me
e|---------------------------0-----------------0-------------------0-------|
B|---------------------------0-----------------0-------------------0-------|
G|---------------------------2-----------------4-------------------6-------|
D|---------------------------2-----------------4-------------------6-------|
A|---------------------------0-----------------2-------------------4-------|
E|---------------------------x-----------------x-------------------x-------|



   You always got to say something, Im none of your concern
e|---------------------------------0--------------------0------------------|
B|---------------------------------0--------------------0------------------|
G|---------------------------------2--------------------2------------------|
D|---------------------------------2--------------------4------------------|
A|---------------------------------0--------------------4------------------|
E|---------------------------------x--------------------x------------------|



   but you wont listen at all, you know Id rather say nothing
e|--------------------------0----------------------------------------------|
B|--------------------------0----------------------------------------------|
G|--------------------------6----------------------------------------------|
D|--------------------------6----------------------------------------------|
A|--------------------------4----------------------------------------------|
E|--------------------------x----------------------------------------------|



   And just be proud of myself for tearing down these walls
e|--0----------------------0-----------------------------------------------|
B|--0----------------------0-----------------------------------------------|
G|--2----------------------4-----------------------------------------------|
D|--2----------------------4-----------------------------------------------|
A|--0----------------------2-----------------------------------------------|
E|--x----------------------x-----------------------------------------------|


Asus2     E        B                          Asus2
When you fall Ill be the only one who looks away
          E        B                                 Asus2
When you call Ill be the first to tell you I cant stay
          E        B                  Asus2       E       B
Its all over, I found a better way to help keep you from me 
                   Asus2
Im better off this way
          E        B
Woah-oh, woah-oh
                   Asus2
Im better off this way
          E        B
Woah-oh, woah-oh
Tap to rate this tab
# A B C D E F G H I J K L M N O P Q R S T U V W X Y Z