Song name
# A B C D E F G H I J K L M N O P Q R S T U V W X Y Z

A Day To Remember - Violence Enough Is Enough tab

Intro - 
Guitar 1
C |---------------------|---------------|-------------------|------------------|
G#|---------------------|---------------|-------------------|------------------|
D#|---------------------|---------------|-------------------|---------7777667--|
A#|--7--------5h7p5-5---|7-------8888777|7--------5h7p5-5---|7--------xxxxxxx--|
F |---5-7-8-7------8-578|-5-7-8-7-------|-5-7-8-7------8-578|-5-7-8-7-5555445--|
A#|----0-0-0-0----------|--5-5-5-5------|--8-8-8-8----------|--7-7-7-7---------|
       . . . .             . . . .         . . . .             . . . .
Guitar 2
C |-------------------------------|-----------------------------|
G#|-------------------------------|-----------------------------|
D#|-------------------------------|-----------------------------|          
A#|-------------------------------|-----------------------------|
F |--00000000-0-0-0--0--0-0-0-0-0-|55555555-5-5-5--5--5-5-5-5-5-|
A#|--00000000-0-0-0--0--0-0-0-0-0-|55555555-5-5-5--5--5-5-5-5-5-|
     ........ . . .  .  . . . . .  ........ . . .  .  . . . . .  
C |-------------------------------|-----------------------------|
G#|-------------------------------|-----------------------------|
D#|-------------------------------|-----------------------------|           
A#|-------------------------------|-----------------------------|
F |--88888888-8-8-8--8--8-8-8-8-8-|77777777-7-7-7--7--7-7-7-7-7-|
A#|--88888888-8-8-8--8--8-8-8-8-8-|77777777-7-7-7--7--7-7-7-7-7-|
     ........ . . .  .  . . . . .  ........ . . .  .  . . . . .

Verse
C |----------------------------------------|----------------------------------------|
G#|----------------------------------------|----------------------------------------|
D#|----------------------------------------|----------------------------------------|
A#|--3----------------7--3-----------------|3--------------/87-7--7--7--------------|
F |---5----------------5--5----------------|-5----5----8------5-5--5--5-5-4-5-4-4-5-|
A#|----0-0-0-870-0-0----0--0-0-0--/8777330-|--7-8--7-8---5-------0--0--0---0--------|
       .   .               .   .              .
Tap to rate this tab
# A B C D E F G H I J K L M N O P Q R S T U V W X Y Z