Song name
# A B C D E F G H I J K L M N O P Q R S T U V W X Y Z

A Day To Remember - Monument Acoustic tab

You can see me playing it here; http://www.youtube.com/watch?v=GXjs0p6I7OY

Tuning; Drop D

INTRO
e|------------------------------|
B|------------------------------|
G|--5-5-5-7-7-7-5-5-5-7-7-7-7-7-|    X2
D|--8-8-8-8-8-8-8-8-8-8-8-8-8-8-|
A|------------------------------|
D|------------------------------|

CHORUS
|---------------------------------------------------|
|---------------------------------------------------|
|--3-3-3-3-3-3-3-3-3-3-3-3-5-5-5-5-5-5-5-5-5-5-5-5--|
|--1-1-1-1-1-1-1-1-1-1-1-1-3-3-3-3-3-3-3-3-3-3-3-3--|
|--1-1-1-1-1-1-1-1-1-1-1-1-3-3-3-3-3-3-3-3-3-3-3-3--|
|--1-1-1-1-1-1-1-1-1-1-1-1-3-3-3-3-3-3-3-3-3-3-3-3--|

|---------------------------------------------------|
|---------------------------------------------------|
|---------------------------------------------------|
|-55588877777888-8888888888888888-------------------|
|-55555555555555-8888888888888888-------------------|
|-55555555555555-8888888888888888-------------------|

|---------------------------------------------------|
|---------------------------------------------------|
|--3-3-3-3-3-3-3-3-3-3-3-3-5-5-5-5-5-5-5-5-5-5-5-5--|
|--1-1-1-1-1-1-1-1-1-1-1-1-3-3-3-3-3-3-3-3-3-3-3-3--|
|--1-1-1-1-1-1-1-1-1-1-1-1-3-3-3-3-3-3-3-3-3-3-3-3--|
|--1-1-1-1-1-1-1-1-1-1-1-1-3-3-3-3-3-3-3-3-3-3-3-3--|

|---------------------------------------------------|
|---------------------------------------------------|
|---------------------------------------------------|
|-55588877777888-8888888888888888-------------------|
|-55555555555555-8888888888888888-------------------|
|-55555555555555-8888888888888888-------------------|


VERSE1
|---------------------------------------------------|
|---------------------------------------------------|
|---------------------------------------------------|
|--1-1-1-1-1-1-1-1-1-1-1-1-5-5-5-5-5-5-5-5-5-5-5-5--|
|--1-1-1-1-1-1-1-1-1-1-1-1-5-5-5-5-5-5-5-5-5-5-5-5--|
|--1-1-1-1-1-1-1-1-1-1-1-1-5-5-5-5-5-5-5-5-5-5-5-5--|
PM . .   . .   . .   . .   . .   . .   . .   . .

|---------------------------------------------------|
|---------------------------------------------------|
|---------------------------------------------------|
|--1-1-1-1-1-1-1-1-1-1-1-1-5-5-5-5-5-5-5-5-5-5-5-5--|
|--1-1-1-1-1-1-1-1-1-1-1-1-5-5-5-5-5-5-5-5-5-5-5-5--|
|--1-1-1-1-1-1-1-1-1-1-1-1-5-5-5-5-5-5-5-5-5-5-5-5--|
PM . .   . .   . .   . .   . .   . .   . .   . .


CHORUS
|---------------------------------------------------|
|---------------------------------------------------|
|--3-3-3-3-3-3-3-3-3-3-3-3-5-5-5-5-5-5-5-5-5-5-5-5--|
|--1-1-1-1-1-1-1-1-1-1-1-1-3-3-3-3-3-3-3-3-3-3-3-3--|
|--1-1-1-1-1-1-1-1-1-1-1-1-3-3-3-3-3-3-3-3-3-3-3-3--|
|--1-1-1-1-1-1-1-1-1-1-1-1-3-3-3-3-3-3-3-3-3-3-3-3--|

|---------------------------------------------------|
|---------------------------------------------------|
|---------------------------------------------------|
|-55588877777888-8888888888888888-------------------|
|-55555555555555-8888888888888888-------------------|
|-55555555555555-8888888888888888-------------------|

|---------------------------------------------------|
|---------------------------------------------------|
|--3-3-3-3-3-3-3-3-3-3-3-3-5-5-5-5-5-5-5-5-5-5-5-5--|
|--1-1-1-1-1-1-1-1-1-1-1-1-3-3-3-3-3-3-3-3-3-3-3-3--|
|--1-1-1-1-1-1-1-1-1-1-1-1-3-3-3-3-3-3-3-3-3-3-3-3--|
|--1-1-1-1-1-1-1-1-1-1-1-1-3-3-3-3-3-3-3-3-3-3-3-3--|

|---------------------------------------------------|
|---------------------------------------------------|
|---------------------------------------------------|
|-55588877777888-8888888888888888-------------------|
|-55555555555555-8888888888888888-------------------|
|-55555555555555-8888888888888888-------------------|


BRIDGE1
|----------1---------------1---------------1---------------1-------|
|------1-----1---1-----1-----1---1-----1-----1---1-----1-----1-----|
|--3-3---3-----3---3-3---3-----3---3-3---3-----3---3-3---3-----3-2-|
|------------------------------------------------------------------|
|------------------------------------------------------------------|
|------------------------------------------------------------------|


VERSE2
|---------------------------------------------------|
|---------------------------------------------------|
|---------------------------------------------------|
|--1-1-1-1-1-1-1-1-1-1-1-1-5-5-5-5-5-5-5-5-5-5-5-5--|
|--1-1-1-1-1-1-1-1-1-1-1-1-5-5-5-5-5-5-5-5-5-5-5-5--|
|--1-1-1-1-1-1-1-1-1-1-1-1-5-5-5-5-5-5-5-5-5-5-5-5--|
PM . .   . .   . .   . .   . .   . .   . .   . .

|---------------------------------------------------|
|---------------------------------------------------|
|---------------------------------------------------|
|--1-1-1-1-1-1-1-1-1-1-1-1-5-5-5-5-5-5-5-5-5-5-5-5~-|
|--1-1-1-1-1-1-1-1-1-1-1-1-5-5-5-5-5-5-5-5-5-5-5-5~-|
|--1-1-1-1-1-1-1-1-1-1-1-1-5-5-5-5-5-5-5-5-5-5-5-5~-|
PM . .   . .   . .   . .   . .   . .   . .   . .

|---------------------------------------------------|
|---------------------------------------------------|
|---------------------------------------------------|
|--1-1-1-1-1-1-1-1-1-1-1-1-5-5-5-5-5-5-5-5-5-5-5-5--|
|--1-1-1-1-1-1-1-1-1-1-1-1-5-5-5-5-5-5-5-5-5-5-5-5--|
|--1-1-1-1-1-1-1-1-1-1-1-1-5-5-5-5-5-5-5-5-5-5-5-5--|

CHORUS
|---------------------------------------------------|
|---------------------------------------------------|
|--3-3-3-3-3-3-3-3-3-3-3-3-5-5-5-5-5-5-5-5-5-5-5-5--|
|--1-1-1-1-1-1-1-1-1-1-1-1-3-3-3-3-3-3-3-3-3-3-3-3--|
|--1-1-1-1-1-1-1-1-1-1-1-1-3-3-3-3-3-3-3-3-3-3-3-3--|
|--1-1-1-1-1-1-1-1-1-1-1-1-3-3-3-3-3-3-3-3-3-3-3-3--|

|---------------------------------------------------|
|---------------------------------------------------|
|---------------------------------------------------|
|-55588877777888-8888888888888888-------------------|
|-55555555555555-8888888888888888-------------------|
|-55555555555555-8888888888888888-------------------|

|---------------------------------------------------|
|---------------------------------------------------|
|--3-3-3-3-3-3-3-3-3-3-3-3-5-5-5-5-5-5-5-5-5-5-5-5--|
|--1-1-1-1-1-1-1-1-1-1-1-1-3-3-3-3-3-3-3-3-3-3-3-3--|
|--1-1-1-1-1-1-1-1-1-1-1-1-3-3-3-3-3-3-3-3-3-3-3-3--|
|--1-1-1-1-1-1-1-1-1-1-1-1-3-3-3-3-3-3-3-3-3-3-3-3--|

|---------------------------------------------------|
|---------------------------------------------------|
|---------------------------------------------------|
|-55588877777888-8888888888888888-------------------|
|-55555555555555-8888888888888888-------------------|
|-55555555555555-8888888888888888-------------------|

BRIDGE
|------------------------------------------------------|
|------------------------------------------------------|
|-5-5-5-5-5-5-5-5-5-5-5-5-5-7-7-7-8-8-8-8-8-8-8-8-8-8--|
|-5-5-5-5-5-5-5-5-5-5-5-5-5-7-7-7-8-8-8-8-8-8-8-8-8-8--|
|-3-3-3-3-3-3-3-3-3-3-3-3-3-5-5-5-6-6-6-6-6-6-6-6-6-6--|
|------------------------------------------------------|
PM. . . . . . . . . . . . . . . . .  .  .  .  .  .  .  .  .  .

|-------------------------------------------------------------|
|-------------------------------------------------------------|
|-------------------------------------------------------------|
|-5-5-5-5-5-5-5-5-5-5-5-5-5-5-5-5-3-3-3-3-3-3-3-3-3-3-3-3-3-3-|
|-5-5-5-5-5-5-5-5-5-5-5-5-5-5-5-5-3-3-3-3-3-3-3-3-3-3-3-3-3-3-|
|-5-5-5-5-5-5-5-5-5-5-5-5-5-5-5-5-3-3-3-3-3-3-3-3-3-3-3-3-3-3-|
PM. . . . . . . . . . . . . . . . . . . . . . . . . . . . . . 

|------------------------------------------------------|
|------------------------------------------------------|
|-5-5-5-5-5-5-5-5-5-5-5-5-5-7-7-7-8-8-8-8-8-8-8-8-8-8--|
|-5-5-5-5-5-5-5-5-5-5-5-5-5-7-7-7-8-8-8-8-8-8-8-8-8-8--|
|-3-3-3-3-3-3-3-3-3-3-3-3-3-5-5-5-6-6-6-6-6-6-6-6-6-6--|
|------------------------------------------------------|

|-------------------------------------------------------------|
|-------------------------------------------------------------|
|-------------------------------------------------------------|
|-5-5-5-5-5-5-5-5-5-5-5-5-5-5-5-5-3-3-3-3-3-3-3-3-3-3-3-3-3-3-|
|-5-5-5-5-5-5-5-5-5-5-5-5-5-5-5-5-3-3-3-3-3-3-3-3-3-3-3-3-3-3-|
|-5-5-5-5-5-5-5-5-5-5-5-5-5-5-5-5-3-3-3-3-3-3-3-3-3-3-3-3-3-3-|

(And I'll scream...)
|--------------------------------------------------------------------|
|--------------------------------------------------------------------|
|-5~-7-7-8~----------------------------------------------------------|
|-5~-7-7-8~--5-5-5-5-5-5-5-5-5-5-5-5-5-5-3-3-3-3-3-3-3-3-3-3-3-3-3-3-|X2 
|-3~-5-5-6~--5-5-5-5-5-5-5-5-5-5-5-5-5-5-3-3-3-3-3-3-3-3-3-3-3-3-3-3-|
|------------5-5-5-5-5-5-5-5-5-5-5-5-5-5-3-3-3-3-3-3-3-3-3-3-3-3-3-3-|

(Twenty bucks says...)
|------------------|
|------------------|
|-5~-7-7-8~--------|
|-5~-7-7-8~--5--3--| 
|-3~-5-5-6~--5--3--|
|------------5--3--|
Tap to rate this tab
# A B C D E F G H I J K L M N O P Q R S T U V W X Y Z