Song name
# A B C D E F G H I J K L M N O P Q R S T U V W X Y Z

A Day To Remember - Violence Enough Is Enough tab

-------------------------------------------------------------------------------
                             Violence [Enough is Enough] - A Day To Remember
-------------------------------------------------------------------------------
Tabbed by:Guitarman0182


Tuning:A# F A# D# G C





INTRO/CHOURS


C |---------------------|---------------|-------------------|------------------|
G#|---------------------|---------------|-------------------|------------------|
D#|---------------------|---------------|-------------------|---------7777667--|
A#|--7--------5h7p5-5---|7-------8888777|7--------5h7p5-5---|7--------xxxxxxx--|
F |---5-7-8-7------8-578|-5-7-8-7-------|-5-7-8-7------8-578|-5-7-8-7-5555445--|
A#|----0-0-0-0----------|--5-5-5-5------|--8-8-8-8----------|--7-7-7-7---------|
       . . . .             . . . .         . . . .             . . . .




GUITAR: 2
INTRO/CHOURS: P.M. FIGURE OUT PATTERN

C|-------|-----|-----|-----|-----|------------------------------------------------|
G|-------|-----|-----|-----|-----|------------------------------------------------|
D#|------|-----|-----|-----|-----|------------------------------------------------|
A#|------|-0---|-5---|-8---|-7---|------------------------------------------------|
F|-------|-0---|-5---|-8---|-7---|------------------------------------------------|
A#|------|-0---|-5---|-8---|-7---|------------------------------------------------|




VERSE

C|---------------------------------------------------------------------------|
G|---------------------------------------------------------------------------|
D#|--------------------------------------------------------------------------|
A#|-------------------5-----3----------7-----3-------------------------------|
F|------5----7---------------------------5-----5-----------------------------|
A#|--0-0----0-----7-7---7-7---88877700-----0-----0--0-0-0---8887733300-------|
                  ..   ..                           .   .

VERSE

C |--------------------------------------------------------------------------------|
G#|--------------------------------------------------------------------------------|
D#|--------------------------------------------------------------------------------|
A#|3---------------87-7--7--7------------------------------------------------------|
F |-5----5----8------5-5--5--5-------5454445---------------------------------------|
A#|--7-8--7-8---5-------0--0--0---0------------------------------------------------|


VERSE: STRUM FAST 



C|-------|--------|-------|-------|-------|------|--------------------------|
G|-------|--------|-------|-------|-------|------|--------------------------|
D#|--7---|----10--|---6---|---3---|---2---|---6--|--------------------------|
A#|--x---|----x---|---x---|---x---|---x---|---x--|--------------------------|
F|---5---|----8---|---4---|---1---|---0---|---4--|--------------------------|
A#|------|--------|-------|-------|-------|------|--------------------------|




PRE CHOURS: 2X

C|---------------------------------------------------------------------------|
G|---------------------------------------------------------------------------|
D#|--------------------------------------------------------------------------|
A#|------8-5-7-5--7-5--------3-0--2-0--2-0-----------------------------------|
F|---5---------------5----0----------------0---------------------------------|
A#|-5-5------------------0-0-------------------------------------------------|
    . .                  . .

REPEAT INTRO/CHOURS


REPEAT VERSE


"THERE IS A SADNESS HERE" IS A SIMPLE GUITAR PATTERN


REPEAT INTRO/CHOURS


BREAKDOWN
"WHAT'S THE WORLD GONNA SAY WHEN....."
A SIMPLE PATTERN NO NEED TO EXPLAIN


REPEAT CHOURS



THAT'S IT I HOPE YOU ENJOY

************************************

| /   slide up
| \   slide down
| h   hammer-on
| p   pull-off
| ~   vibrato
| +   harmonic
| x   Mute note
| b   Bend
| pb  Pre-bend
| br  Bend release
| pbr Pre-bend release
| brb Bend release bend

************************************
Tap to rate this tab
 
# A B C D E F G H I J K L M N O P Q R S T U V W X Y Z