Song name
# A B C D E F G H I J K L M N O P Q R S T U V W X Y Z

A Day To Remember - Right Back At It Again tab

This is off of ADTR's new album in 2013



Tuning: Drop C

Intro

Guitar 1
D |------------|---------|
A |------------|---------|
F |------------|---------|
C |------3-----|-------8-|
G |------3-----|-------8-|
C |------3-----|-------8-|


Guitar 2
|-------------------------------------------------|
|-------------------------------------------------|
|----10-10-10-10----10-10-10-10----10-10-10-10----|
|-------------------------------------------------|
|----8--8--8--8------8--8--8--8-----8--8--8--8----|
|-------------------------------------------------|



WE'RE COMING OUT SWINGING!


Guitar 1+2
|-------------------------------------------|        |------------------------|
|-------------------------------------------|        |------------------------|
|-------------------------------------------| x3     |------------------------|
|----3-3-3-3---3-3-3-3---3-3-3-3-3-3-3-3----|        |--8-8-8-8--8-8-7-8-10-3-|
|----3-3-3-3---3-3-3-3---3-3-3-3-3-3-3-3----|        |--8-8-8-8--8-8-7-8-10-3-|
|----3-3-3-3---3-3-3-3---3-3-3-3-3-3-3-3----|        |--8-8-8-8--8-8-7-8-10-3-|


Guitar 2

|-----------------------------------------------------------------------------|
|---18--------18--------18--------18-------18-------17-------17---------17----|
|------17-17-----17-17-----17-17----17-17----17-17----17-17-----17-17---------|
|-----------------------------------------------------------------------------|
|-----------------------------------------------------------------------------|
|-----------------------------------------------------------------------------|

Verse

Guitar 1+2
                                                                                         
                  ending A
|-----------------------------------------------------|------------------|
|-----------------------------------------------------|------------------|
|---3-3-3-3-3-3-3-3-------------------5-5-5-5-5-5-5-5-|-7-7-7-7--5-5-5-5-|
|---3-3-3-3-3-3-3-3--3-3-3-3-3-3-3-3--5-5-5-5-5-5-5-5-|-7-7-7-7--5-5-5-5-|
|---1-1-1-1-1-1-1-1--3-3-3-3-3-3-3-3--3-3-3-3-3-3-3-3-|-5-5-5-5--3-3-3-3-|
|--------------------3-3-3-3-3-3-3-3------------------|------------------|

Ending B
|-------------------|
|-------------------|
|-------------------|
|---5-5-5-5-5-5-5-5-|
|---5-5-5-5-5-5-5-5-|
|---3-3-3-3-3-3-3-3-|


Chorus and Guitar Interlude  : Same as Verse


Ending: Repeat Intro
Tap to rate this tab
 
# A B C D E F G H I J K L M N O P Q R S T U V W X Y Z