Song name
# A B C D E F G H I J K L M N O P Q R S T U V W X Y Z

A Day To Remember - If It Means A Lot To You tab

Capo 3

-----------------------------3--3----------------------------------|
-----------------------------3--3----------------------------------|
--2h4--2p0-----2h4--2p0------0--0--2h4--2p0------------------------|
------------2------------2-------------------2-2-4-5-4-4-4-5-4-4---|
-------------------------------------------------------------------|
-------------------------------------------------------------------|

-----------------------------3--3----------------------------------|
-----------------------------3--3----------------------------------|
--2h4--2p0-----2h4--2p0------0--0--2h4--2p0------------------------|
------------2------------2-------------------2-2-4-5-4-4-4-5-4-4-2-|
-------------------------------------------------------------------|
-------------------------------------------------------------------|
Tap to rate this tab
# A B C D E F G H I J K L M N O P Q R S T U V W X Y Z