Song name
# A B C D E F G H I J K L M N O P Q R S T U V W X Y Z

A Day To Remember - City Of Ocala tab

CITY OF OCALA
A DAY TO REMEMBER
COMMON COURTESY

GUITAR 1

INTRO
D---------------------------------------------------------------------|
A---------------------------------------------------------------------|
F---------------------------------------------------------------------|
C-8--8-7--7--7-7-7-8--8-5--5--5-5-5--3--------------------------------|
G-8--8-7--7--7-7-7-8--8-5--5--5-5-5--3--------------------------------|
C-8--8-7--7--7-7-7-8--8-5--5--5-5-5--3--------------------------------|

VERSE - FUCK YEAH!
The strumming pattern is easy enough, but this is the outline
D---------------------------------------------------------------------|
A---------------------------------------------------------------------|
F--------3-----------3-----------7-------3-------------3------5-------|
C-3------3(x3)-3-----3(x3)-3-----7-(x16)-3-(x3)-3------3-(x3)-5-(x5)--|
G-3(x16)-1-----3(x5)-1-----3(x5)-5-------1------3-(x5)-1------3-------|
C-3------------3-----------3--------------------3---------------------|

GUITAR FILL
D-----------------|
A-----------------|
F-10--10--10--10--|
C-x---x---x---x---|
G-8---8---8---8---|
C-----------------|

PRE-CHORUS
D---------------------------------------------------------------------|
A---------------------------------------------------------------------|
F-10--10--10--10--9---9---9---9---7-----10-----3------5---------------|
C-x---x---x---x---x---x---x---x---x(x3)-x-(x3)-x(x10)-x(x16)----------|
G-8---8---8---8---7---7---7---7---5-----8------1------3---------------|
C---------------------------------------------------------------------|


CHORUS - This is our corner of the world
D---------------------------------------------------------------------|
A---------------------------------------------------------------------|
F-3-----------5------7-----5-----3-----------5------------------------|
C-3(x8)-3-----5(x8)--7(x4)-5(x4)-3(x8)-3-----5(x16)-------------------|
G-1-----3(x8)-3------5-----3-----1-----3(x8)-3------------------------|
C-------3------------------------------3------------------------------|

BRIDGE
D---------------------------------------------------------------------|
A---------------------------------------------------------------------|
F----------------------------------------------5-----5-----5----------|
C----7-7-5-5-7-7---7-7-5-5-------7-7-5-5-7-7-----7-----7-----7--------|
G--------------------------8-8---------------------8-----8------------|
C---------------------------------------------------------------------|

D-------------|-------8--------|---------------|----------------------|
A-------------|----------------|------6------6-|----6-----------------|
F------10-----|----------10----|---------9-----|9------9--------------|
C---10----10--|--10--------10--|----------10---|-10-----10------------|
G-8-----------|8----8----------|3--3-----------|----------------------|
C-------------|----------------|---------------|----------------------|


INTRO
VERSE
PRE-CHORUS
CHORUS
INTRO
VERSE
PRE-CHORUS
CHORUS(X2)
BRIDGE
CHORUS
INTRO


GUITAR 2

INTRO
D---------------------------------------------------------------------|
A---------------------------------------------------------------------|
F-3--3---------------3--3--5--5--5-5-5--------------------------------|
C-3--3--3--3--3-3-3--3--3--5--5--5-5-5--3~----------------------------|
G-1--1--3--3--3-3-3--1--1--3--3--3-3-3--3~----------------------------|
C-------3--3--3-3-3---------------------3~----------------------------|

VERSE - FUCK YEAH!
The strumming pattern is easy enough, but this is the outline
D---------------------------------------------------------------------|
A---------------------------------------------------------------------|
F--------3-----------3-----------7-------3-------------3------5-------|
C-3------3(x3)-3-----3(x3)-3-----7-(x16)-3-(x3)-3------3-(x3)-5-(x5)--|
G-3(x16)-1-----3(x5)-1-----3(x5)-5-------1------3-(x5)-1------3-------|
C-3------------3-----------3--------------------3---------------------|

GUITAR FILL
D-----------------|
A-----------------|
F-----------------|
C-----------------|
G-x-x-8-x-8-x-8-x-|
C-x-x---x---x---x-|

PRE-CHORUS - That was then, this is now
D---------------------------------------------------------------------|
A---------------------------------------------------------------------|
F-3-----5-----7-----10-----3------5-----------------------------------|
C-3(x8)-5(x8)-7(x3)-10(x3)-3(x10)-5(x16)------------------------------|
G-1-----3-----5-----8------1------3-----------------------------------|
C---------------------------------------------------------------------|

CHORUS - This is our corner of the world…
D---------------------------------------------------------------------|
A---------------------------------------------------------------------|
F-3-----------5------7-----5-----3-----------5------------------------|
C-3(x8)-3-----5(x8)--7(x4)-5(x4)-3(x8)-3-----5(x16)-------------------|
G-1-----3(x8)-3------5-----3-----1-----3(x8)-3------------------------|
C-------3------------------------------3------------------------------|

BRIDGE
D-------------------------|-------------------------------------------|
A-------------------repeat|-------------------------------------------|
F--------7-----3---forever|-3---------5-------------------------------|
C-3------7(x8)-3(x8)------|-3----3----5-------------------------------|
G-3(x16)-5-----1----------|-1----3----3-------------------------------|
C-3-----------------------|------3------------------------------------|


INTRO
VERSE
PRE-CHORUS
CHORUS
INTRO
VERSE
PRE-CHORUS
CHORUS(X2)
BRIDGE
CHORUS
INTRO
Tap to rate this tab
 
# A B C D E F G H I J K L M N O P Q R S T U V W X Y Z