Song name
# A B C D E F G H I J K L M N O P Q R S T U V W X Y Z

A Day To Remember - Right Back At It Again tab

RIGHT BACK AT IT AGAIN
A DAY TO REMEMBER
COMMON COURTESY

GUITAR 1

INTRO :)
D------------|--------------------------------------------------|
A------------|--------------------------------------------------|
F------------|--------------------------------------------------|
C------3-----|-------8------------------------------------------|
G------3-----|-------8------------------------------------------|
C------3-----|-------8------------------------------------------|

WE'RE COMING OUT SWINGING!

D----------------------------------------------------------------|
A----------------------------------------------------------------|
F----------------------------------------------------------------|
C-3333--3333--3-333333-333--33333333--3333--3-338888--888-7-8-10-|
G-3333--3333--3-333333-333--33333333--3333--3-338888--888-7-8-10-|
C-3333--3333--3-333333-333--33333333--3333--3-338888--888-7-8-10-|

D---------------------------------------------------------------|
A-18-------18-------18-------18-----18----------18--------------|
F----17-17----17-17----17-17-----17----17-17-------17-17--------|
C---------------------------------------------------------------|
G---------------------------------------------------------------|
C---------------------------------------------------------------|

D---------------------------------------------------------------|
A-17-------17-------17-------17---------------------------------|
F----17-17----17-17----17-17-----17-17--------------------------|
C---------------------------------------------------------------|
G---------------------------------------------------------------|
C---------------------------------------------------------------|

VERSE & CHORUS - Palm mute verses
D---------------------------------------------------------------|
A---------------------------------------------------------------|
F-3-----------5-----7-----5-----3-----------5-------------------|
C-3(x8)-3-----5(x8)-7(x4)-5(x4)-3(x8)-3-----5(x16)--------------|
G-1-----3(x8)-3-----5-----3-----1-----3(x8)-3-------------------|
C-------3-----------------------------3-------------------------|

2ND HALF OF CHORUS
D---------------------------------------------------------------|
A---------------------------------------------------------------|
F-5/7-5/7-5---7-7/99---5/7-5/7---5-5-5/4-4----------------------|
C-3/5-3/5-5---5-5/77---3/5-3/5---3-3-3/2-2----------------------|
G---------3-----------------------------------------------------|
C---------------------------------------------------------------|

BRIDGE
D---------------------------------------------------------------|
A---------------------------------------------------------------|
F---------------------------------------------------------------|
C-8-8-8-7-7-7-5-5-5-7-7-7-8-7-5-----------7-7-7-5-5-5-7-7-7-----|
G-------------------------------8-------------------------------|
C------------------------------------10-10-10-------------------|

D---------------------------------------------------------------|
A---------------------------------------------------------------|
F---------------------------------------------------------------|
C-8-7-5---8-8-8-7-7-7-5-5-5-7-7-7-8-7-5-------------------------|
G-------8-------------------------------8(x)-10-7(x8)-----------|
C---------------------------------------------------------------|

INTRO
VERSE
CHORUS
VERSE
CHORUS
BRIDGE
CHORUS

GUITAR 2
INTRO
D---------------------------------------------------------------|
A---------------------------------------------------------------|
F-10-10-10-10--10-10-10-10--10-10-10-10-------------------------|
C--------------------------------------(x3)-8-------------------|
G-8--8--8--8---8--8--8--8---8--8--8--8------8-------------------|
C-----------------------------------------------8---------------|

WE'RE COMING OUT SWINGING!

D---------------------------------------------------------------|
A---------------------------------------------------------------|
F---------------------------------------------------------------|
C-3-3-3-3---3-3-3-3---3-3-3-3-3-3-3-3-----8-8-8-8---8-8-7-8-10--|
G-3-3-3-3---3-3-3-3---3-3-3-3-3-3-3-3(X3)-8-8-8-8---8-8-7-8-10--|
C-3-3-3-3---3-3-3-3---3-3-3-3-3-3-3-3-----8-8-8-8---8-8-7-8-10--|

D------------|
A------------|
F------------|
C------3-----|
G------3-----|
C------3-----|

VERSE & CHORUS & BRIDGE
D---------------------------------------------------------------|
A---------------------------------------------------------------|
F-3-----------5-----7-----5-----3-----------5-------------------|
C-3(x8)-3-----5(x8)-7(x4)-5(x4)-3(x8)-3-----5(x16)--------------|
G-1-----3(x8)-3-----5-----3-----1-----3(x8)-3-------------------|
C-------3-----------------------------3-------------------------|

INTRO
VERSE
CHORUS
VERSE
CHORUS
BRIDGE
CHORUS

This is by far the simplest song on the album
Tap to rate this tab
 
# A B C D E F G H I J K L M N O P Q R S T U V W X Y Z