Song name
# A B C D E F G H I J K L M N O P Q R S T U V W X Y Z

A Day To Remember - Life Lessons Learned The Hard Way tab

A DAY TO REMEMBER
Life Lessons Learned The Hard Way
Drop A# - A# F A# D# G C


Intro - Guitar 1            x3 
|--------end of every 2 bars--|---------------------------------|
|----------|------------------|---------------------------------|
|--7tr~~~~--7b(8)r(7)---------|-7tr~~~----10tr~~--10b(11)~~~----|
|-----------------------------|---------------------------------|
|-----------------------------|---------------------------------|
|-----------------------------|---------------------------------|
Intro - Guitar 2            x3
|-----------------------------|---------------------------------|
|-6~~~------------------------|-6~~-----------------------------|
|-7~~~------------------------|-7~~-----------------------------|
|-7~~~------------------------|-7~~-------1~~------4~~----------|
|-5~~~------------------------|-5~~-------1~~------4~~----------|
|-0~~~------------------------|-0~~-------1~~------4~~----------|


Pre-verse - Guitar 1 (I've got my own rhythm to it)
|-------------------------------------------------------------------------|
|-------------------------------------------------------------------------|
|-------------------------------------------------------------------------|
|-------------------------------------------------------------------------| x2
|-------------------------------------------------------------------------|
|-12~-0h12~-0h12~0h12~-0h12~-0h12-0h13-0h12-0h10-0h12-0h10-0h12-0h13-0h12-|
Pre-verse - Guitar 2
|-------------------------------------------------------------------------|
|-------------------------------------------------------------------------|
|---------------------------------------------SCRAPE----------------------|
|-0-------------------------0-----------------\\\\\\-----------------4----|
|-0-------------------------0-----------------\\\\\\-----------------4----|
|-0-------------------------0----------------------------------------4----|


Verse - Both Guitars
|-------------------------------------------------------------------------|
|-------------------------------------------------------------------------|
|-------------------------------------------------------------------------|
|-------------------------------------------------------------------------|===
|-------------------------------------------------------------------------|   |
|-12~-0h12~-0h12~0h12~-0h12~-0h12-0h13-0h12-0h10-0h12-0h10-0h12-0h13-0h12-|   |
||                                                                            |
|-------------------------------------------------------------------------|   |
|-------------------------------------------------------------------------|   |
|-------------------------------------------------------------------------|   |
|-------------------------------------------------------------------------|   |
|---------------------------------------------------------------6h8p6p5---|   |
|-12~-0h12~-0h12~0h12~-0h12~-0h12-0h13-0h12-0h10-0h12-0h10-0h12-----------|   |All 
||                                                                            | (x2)
|-------------------------------------------------------------------------|   |This
|-------------------------------------------------------------------------|   |
|-------------------------------------------------------------------------|   |
|-------------------------------------------------------------------------|   |
|-------------------------------------------------------------------------|   |
|-12~-0h12~-0h12~0h12~-0h12~-0h12-0h13-0h12-0h10-0h12-0h10-0h12-0h13-0h12-|   |
||                                                                            |
|-------------------------------------------------------------------------|   |
|-------------------------------------------------------------------------|   |
|-------------------------------------------------------------------------|   |
|-------------------------------------------------------------------------|====
|----------------------------xx--5~~5~~-xx-5~~5~~-xx--7~~-----------------|
|-12~-0h12~-0h12~0h12~-0h12~-xx--8~~8~~-xx-8~~8~~-xx-10~~-----------------|


Verse Breakdown - Both Guitars
|-------------------------------------------------------------------------|
|-------------------------------------------------------------------------|
|--------------------------------------------------------------------6~6~-|
|--------------------------------------------------------------------3~3~-| x2
|-0~~-00-0~0~~-00-0~~-00-0~~-00-1~4~1~-0~~-00-0~0~~-00-0~~-00-0~~-00-4~4~-|
|-0~~-00-0~0~~-00-0~~-00-0~~-00-1~4~1~-0~~-00-0~0~~-00-0~~-00-0~~-00------|
      **       **     **     **            **       **     **     **

Verse Breakdown 2 - Both Guitars
|-------------------------------------------------------------------------|
|-------------------------------------------------------------------------|
|-----------------------------------------------------------6~6~----------|
|-----------------------------------------------------------3~3~----------| 
|-00---000~0---000--000--00-1-4-1-00---000~0---000--000--00-4~4~----------|
|-00---000~0---000--000--00-1-4-1-00---000~0---000--000--00---------------|
||**   **  *   ***  ***  **       **   **  *   ***  ***  **
|-------------------------------------------------------------------------|
|----------------------------------------YOU LIVE YOUR LIFE---------------|
|-----------------------------------------------AS A FUCKING TARGET-------|
|-------------------------------------------------------------------------|
|-0~~-00-0~0~~-00-0~~-00-0~~-00-1~4~1~-0----------------------------------|
|-0~~-00-0~0~~-00-0~~-00-0~~-00-1~4~1~-0----------------------------------|
      **       **     **     **

Breakdown - Both Guitars                                            2nd repeat
|--------------------------------------------------------------------|-----|
|--------------------------------------------------------------------|-----|
|--------------------------------------------------------------------|-----|
|--------------------------------------------------------------------|-----| x2
|-00~-00~-0000~00~-0000~---00--00~-00~-00~-0000~00~-1~00-3~00-4-3-1-0|-5ph-|
|-00~-00~-0000~00~-0000~-4~001100~-00~-00~-0000~00~-1~00-3~00-4-3-1-0|-----|
||                                                    **   **   
|--------------------------------------------------------------------------|
|--------------------------------------------------------------------------|
|--------------------------------------------------------------------------|
|-L---R--------------------------------------------------------------------| x2
|-00~-00~-0000~00~-0000~---00--00~-00~-00~-0000~00~-1~00-3~00-4-3-1-0------|
|-00~-00~-0000~00~-0000~-4~001100~-00~-00~-0000~00~-1~00-3~00-4-3-1-0------|
  **  **                                              **   **
2nd repeat, normal.


Done :P rate and comment Pl0x
Tap to rate this tab
# A B C D E F G H I J K L M N O P Q R S T U V W X Y Z