Song name
# A B C D E F G H I J K L M N O P Q R S T U V W X Y Z

A Day To Remember - Same Book But Never The Same Page tab

This is my first tab.  I play rhythm, so the lead is not done for this tab.  I also did
not put the strumming pattern/# of strums in, so you have to figure those out (it's
REALLY easy).  You are going to need to have the song handy.  Let me know how I did.. 
maybe even add in the lead parts in the comments if you figure them out before me?

INTRO:

D|-10----14-10-PAUSE-10---15-14----|
A|----10---------------10-------10-|
F|---------------------------------|
C|---------------------------------|
G|---------------------------------|
C|---------------------------------|

VERSE: "I've lost a part of me.."

D|---------------------------|
A|---------------------------|
F|---------------------------|     (x4)
C|-99--00--55-55-------------|
G|-99--00--55-55-------------|
C|-99--00--55-55-------------|
   xx  xx  xx xx

END W/:

D|---------------------------|
A|---------------------------|
F|---------------------------|
C|--5------------------------|   Let it ring
G|--5------------------------|
C|--5------------------------|

CHORUS: Figure out pattern and # of strums

D|---------------------------|
A|---------------------------|
F|---------------------------|
C|-9-5-0-7-9---5-7-9-0-------|
G|-9-5-0-7-9---5-7-9-0-------|
C|-9-5-0-7-9---5-7-9-0-------|
               ^ This is played when Jeremy sings, "I can't stand it.."

[VERSE REPEATED, BUT ONLY TWICE]

PRE-CHORUS - "I'm a sucker for complication.."

D|---------------------------|
A|---------------------------|  x2
F|---------------------------|  Figure out pattern and # of strums
C|-9-7-5-0-5-----------------|
G|-9-7-5-0-5-----------------|
C|-9-7-5-0-5-----------------|

END W/:

D|---------------------------|
A|---------------------------|
F|---------------------------|  Do not let it ring
C|--7------------------------|
G|--7------------------------|
C|--7------------------------|

[REPEAT CHORUS]

BRIDGE:

D|---------------------------|
A|---------------------------|
F|---------------------------|  Figure out pattern and # of strums
C|--5-7-9-7---5-7-9-2-4-5----|
G|--5-7-9-7---5-7-9-2-4-5----|
C|--5-7-9-7---5-7-9-2-4-5----|
                    ^"You're just a notch in the wall.."

END W/:

D|---------------------------|
A|---------------------------|
F|---------------------------|
C|--5------------------------|  Let it ring
G|--5------------------------|
C|--5------------------------|

[REPEAT CHORUS], but end with this:

D|---------------------------|
A|---------------------------|
F|---------------------------|  Let last note (0's) ring
C|-5-7-0---------------------|
G|-5-7-0---------------------|
C|-5-7-0---------------------|


BREAKDOWN - OUTRO:

D|---------------------------|
A|---------------------------| This is the lead up to the breakdown.
F|---------------------------|
C|---------------------------| Figure out pattern and # of strums.
G|---------------------------|
C|--0-0-0-0-0-0-0-0-0-0-0-0--|

D|---------------------------|
A|---------------------------|
F|---------------------------| Same pattern and # of strums as above. ^
C|--0-0-0-0-0-0--------------|
G|--0-0-0-0-0-0--------------|
C|--0-0-0-0-0-0--------------|
    ^"YOU BREAK ME, DOWN!" until the end of the song.
Tap to rate this tab
# A B C D E F G H I J K L M N O P Q R S T U V W X Y Z