Song name
# A B C D E F G H I J K L M N O P Q R S T U V W X Y Z

A Day To Remember - Welcome To The Family tab

                                      Welcome to the Family             

                                        A Day to Remember

                                            Homesick

TUNING - DROP A# (A#fA#D#GC)


Legend
-----------------------------------------------------------------------------------
W - whole                    L - tied note                 br - bendRelease        
H - half                     NH - natural harmonic         pb - preBend
Q - quarter                  AH - artificial harmonic      pbr - preBendRelease
E - 8th                      TH - tapped harmonic          brb - bendReleaseBend
S - 16th                     SH - semi harmonic            S - shift slide
T - 32nd                     PH - pitch harmonic           s - legato slide  
X - 64th                     h - hammer on                 ~ - vibrato
. - note dotted              p - pull off                  TP - tremolo picking
|-n-|  - n-tuplets           b - bend                      T - tapping
T - tapping                  S - slap                      P - pop
< - fade in                  ^ - brush up                  v - brush down

/ -  slide into from below or out of upwards
\ -  slide into from above or out of downwards
------------------------------------------------------------------------------------



LEAD GUITAR


                 PM PM    PM PM PM PM PM PM  
              E  E  E  E  E  E  S  S  S  S   
C ||-------|--------------------------------|
G ||-------|--------------------------------|
D#||-------|--------------------------------|
A#||-------|--------------------------------|
F ||-------|--0--0--0--0--0--0--0--0--0--0--|
A#||-------|--0--0--0--0--0--0--0--0--0--0--|


     PM PM    PM PM PM PM PM PM PM  
  E  E  E  E  E  S  S  S  S  S  S   
-----------------------------------|
-----------------------------------|
-----------------------------------|
-----------------------------------|
--0--0--0--0--0--0--0--0--0--0--0--|
--0--0--0--0--0--0--0--0--0--0--0--|


     PM PM    PM PM PM PM PM PM  
  E  E  E  E  E  E  S  S  S  S   
--------------------------------|
--------------------------------|
--------------------------------|
--------------------------------|
--0--0--0--0--0--0--0--0--0--0--|
--0--0--0--0--0--0--0--0--0--0--|


     PM PM    PM PM    PM  
  E  E  E  E  E  E  E  E   
--------------------------|
--------------------------|
--------------------------|
--------------------------|
--0--0--0--0--0--0--0--0--|
--0--0--0--0--0--0--0--0--|


     PM PM    PM PM PM PM PM PM  
  E  E  E  E  E  E  S  S  S  S   
--------------------------------|
--------------------------------|
--------------------------------|
--------------------------------|
--0--0--0--0--0--0--0--0--0--0--|
--0--0--0--0--0--0--0--0--0--0--|


     PM PM    PM PM PM PM PM PM PM  
  E  E  E  E  E  S  S  S  S  S  S   
-----------------------------------|
-----------------------------------|
-----------------------------------|
-----------------------------------|
--0--0--0--0--0--0--0--0--0--0--0--|
--0--0--0--0--0--0--0--0--0--0--0--|


     PM PM    PM PM PM PM PM PM  
  E  E  E  E  E  E  S  S  S  S   
--------------------------------|
--------------------------------|
--------------------------------|
--------------------------------|
--0--0--0--0--0--0--0--0--0--0--|
--0--0--0--0--0--0--0--0--0--0--|


     PM PM    PM PM    PM  
  E  E  E  E  E  E  E  E   
--------------------------|
--------------------------|
--------------------------|
--------------------------|
--0--0--0--0--0--0--0--0--|
--0--0--0--0--0--0--0--0--|


  PM   PM      PM PM PM  
  Q    Q    E  E  E  E   
------------------------|
------------------------|
------------------------|
------------------------|
--0----0-------0--0--0--|
--0----0-------0--0--0--|


  PM   PM      PM PM PM PM  
  Q    Q    E  S  S  E  E   
---------------------------|
---------------------------|
---------------------------|
---------------------------|
--0----0-------0--0--0--0--|
--0----0-------0--0--0--0--|


  PM   PM      PM PM PM  
  Q    Q    E  E  E  E   
------------------------|
------------------------|
------------------------|
------------------------|
--0----0-------0--0--0--|
--0----0-------0--0--0--|


          PM        PM         
   E   E  E  E   E  E  E   E   
------------------------------|
------------------------------|
--10s--9-----9s--7-----5s--7--|
------------------------------|
---8s--7-----7s--5-----3s--5--|
----------0---------0---------|


  PM   PM      PM PM PM  
  Q    Q    E  E  E  E   
------------------------|
------------------------|
------------------------|
------------------------|
--0----0-------0--0--0--|
--0----0-------0--0--0--|


  PM   PM      PM PM PM PM  
  Q    Q    E  S  S  E  E   
---------------------------|
---------------------------|
---------------------------|
---------------------------|
--0----0-------0--0--0--0--|
--0----0-------0--0--0--0--|


  PM   PM      PM PM PM  
  Q    Q    E  E  E  E   
------------------------|
------------------------|
------------------------|
------------------------|
--0----0-------0--0--0--|
--0----0-------0--0--0--|


          PM        PM         
   E   E  E  E   E  E  E   E   
------------------------------|
------------------------------|
--10s--9-----9s--7-----5s--7--|
------------------------------|
---8s--7-----7s--5-----3s--5--|
----------0---------0---------|


  PM PM    PM       PM     
  E  E  E  E  E  E  E  E   
--------------------------|
--------------------------|
--------------------------|
--------------------------|
--0--0--0--0--0--0--0--0--|
--0--0--0--0--0--0--0--0--|


  PM    PM PM    PM       
  E  E  E  E  E  E  Q     
-------------------------|
-------------------------|
-------------------------|
-------------------------|
--0--0--0--0--0--0--0----|
--0--0--0--0--0--0--0----|


  PM PM    PM       PM     
  E  E  E  E  E  E  E  E   
--------------------------|
--------------------------|
--------------------------|
--------------------------|
--0--0--0--0--0--0--0--0--|
--0--0--0--0--0--0--0--0--|


  PM          PM           
  E  E  E  E  E  E  E  E   
--------------------------|
--------------------------|
--------------------------|
--------------------------|
-----8--8--8-----5--5--5--|
--0--8--8--8--0--5--5--5--|


  PM PM    PM       PM     
  E  E  E  E  E  E  E  E   
--------------------------|
--------------------------|
--------------------------|
--------------------------|
--0--0--0--0--0--0--0--0--|
--0--0--0--0--0--0--0--0--|


  PM    PM PM    PM        
  E  E  E  E  E  E  E  E   
--------------------------|
--------------------------|
--------------------------|
--------------------------|
--0--0--0--0--0--0--0--0--|
--0--0--0--0--0--0--0--0--|


  PM PM    PM       PM     
  E  E  E  E  E  E  E  E   
--------------------------|
--------------------------|
--------------------------|
--------------------------|
--0--0--0--0--0--0--0--0--|
--0--0--0--0--0--0--0--0--|


  PM          PM           
  E  E  E  E  E  E  E  E   
--------------------------|
--------------------------|
--------------------------|
--------------------------|
-----8--8--8-----5--5--5--|
--0--8--8--8--0--5--5--5--|


  E  E  E  E  E  E  E  E   
--------------------------|
--------------------------|
--------------------------|
--3--3--3--3--3--3--3--3--|
--1--1--1--1--1--1--1--1--|
--------------------------|


  E  E  E  E  E  E  E  E   
--------------------------|
--------------------------|
--------------------------|
--3--3--3--3--3--3--3--3--|
--1--1--1--1--1--1--1--1--|
--------------------------|


  E  E  E  E  E  E  E  E   
--------------------------|
--------------------------|
--------------------------|
--------------------------|
--0--0--0--0--0--0--0--0--|
--0--0--0--0--0--0--0--0--|


  E  E  E  E  E  E  E  E   
--------------------------|
--------------------------|
--------------------------|
--------------------------|
--0--0--0--0--0--0--0--0--|
--0--0--0--0--0--0--0--0--|


  E  E  E  E  E  E  E  E   
--------------------------|
--------------------------|
--------------------------|
--------------------------|
--3--3--3--3--3--3--3--3--|
--3--3--3--3--3--3--3--3--|


  E  E  E  E  E  E  E  E   
--------------------------|
--------------------------|
--------------------------|
--------------------------|
--3--3--3--3--3--3--3--3--|
--3--3--3--3--3--3--3--3--|


  E  E  E  E  E  E  E  E   
--------------------------|
--------------------------|
--------------------------|
--5--5--5--5--5--5--5--5--|
--3--3--3--3--3--3--3--3--|
--------------------------|


  E  E  E  E  E  E  E  E   
--------------------------|
--------------------------|
--------------------------|
--5--5--5--5--5--5--5--5--|
--3--3--3--3--3--3--3--3--|
--------------------------|


  E  E  E  E  E  E  E  E   
--------------------------|
--------------------------|
--------------------------|
--3--3--3--3--3--3--3--3--|
--1--1--1--1--1--1--1--1--|
--------------------------|


  E  E  E  E  E  E  E  E   
--------------------------|
--------------------------|
--------------------------|
--3--3--3--3--3--3--3--3--|
--1--1--1--1--1--1--1--1--|
--------------------------|


  E  E  E  E  E  E  E  E   
--------------------------|
--------------------------|
--------------------------|
--------------------------|
--0--0--0--0--0--0--0--0--|
--0--0--0--0--0--0--0--0--|


  E  E  E  E  E  E  E  E   
--------------------------|
--------------------------|
--------------------------|
--------------------------|
--0--0--0--0--0--0--0--0--|
--0--0--0--0--0--0--0--0--|


  E  E  E  E  E  E  E  E   
--------------------------|
--------------------------|
--------------------------|
--------------------------|
--3--3--3--3--3--3--3--3--|
--3--3--3--3--3--3--3--3--|


  E  E  E  E  E  E  E  E   
--------------------------|
--------------------------|
--------------------------|
--------------------------|
--3--3--3--3--3--3--3--3--|
--3--3--3--3--3--3--3--3--|


  E  E  E  E  E  E  E  E   
--------------------------|
--------------------------|
--------------------------|
--5--5--5--5--5--5--5--5--|
--3--3--3--3--3--3--3--3--|
--------------------------|


  E  E  E  E  E  E  E  E   
--------------------------|
--------------------------|
--------------------------|
--5--5--5--5--5--5--5--5--|
--3--3--3--3--3--3--3--3--|
--------------------------|


  Q    Q    E  E  E  E   
------------------------|
------------------------|
------------------------|
------------------------|
------------------------|
--0----0-------0--0--0--|


            PM  PM  PM  
  Q    Q    E.  E.  E   
-----------------------|
-----------------------|
-----------------------|
-----------------------|
------------0---0---0--|
--0----0----0---0---0--|


  PM   PM      PM PM PM  
  Q    Q    E  E  E  E   
------------------------|
------------------------|
------------------------|
------------------------|
--0----0-------0--0--0--|
--0----0-------0--0--0--|


  PM   PM      PM PM PM PM  
  Q    Q    E  S  S  E  E   
---------------------------|
---------------------------|
---------------------------|
---------------------------|
--0----0-------0--0--0--0--|
--0----0-------0--0--0--0--|


  PM   PM      PM PM PM  
  Q    Q    E  E  E  E   
------------------------|
------------------------|
------------------------|
------------------------|
--0----0-------0--0--0--|
--0----0-------0--0--0--|


          PM        PM         
   E   E  E  E   E  E  E   E   
------------------------------|
------------------------------|
--10s--9-----9s--7-----5s--7--|
------------------------------|
---8s--7-----7s--5-----3s--5--|
----------0---------0---------|


  PM   PM      PM PM PM  
  Q    Q    E  E  E  E   
------------------------|
------------------------|
------------------------|
------------------------|
--0----0-------0--0--0--|
--0----0-------0--0--0--|


  PM   PM      PM PM PM PM  
  Q    Q    E  S  S  E  E   
---------------------------|
---------------------------|
---------------------------|
---------------------------|
--0----0-------0--0--0--0--|
--0----0-------0--0--0--0--|


  PM   PM      PM PM PM  
  Q    Q    E  E  E  E   
------------------------|
------------------------|
------------------------|
------------------------|
--0----0-------0--0--0--|
--0----0-------0--0--0--|


          PM        PM         
   E   E  E  E   E  E  E   E   
------------------------------|
------------------------------|
--10s--9-----9s--7-----5s--7--|
------------------------------|
---8s--7-----7s--5-----3s--5--|
----------0---------0---------|


  PM PM    PM       PM     
  E  E  E  E  E  E  E  E   
--------------------------|
--------------------------|
--------------------------|
--------------------------|
--0--0--0--0--0--0--0--0--|
--0--0--0--0--0--0--0--0--|


  PM    PM PM    PM       
  E  E  E  E  E  E  Q     
-------------------------|
-------------------------|
-------------------------|
-------------------------|
--0--0--0--0--0--0--0----|
--0--0--0--0--0--0--0----|


  PM PM    PM       PM     
  E  E  E  E  E  E  E  E   
--------------------------|
--------------------------|
--------------------------|
--------------------------|
--0--0--0--0--0--0--0--0--|
--0--0--0--0--0--0--0--0--|


  PM          PM           
  E  E  E  E  E  E  E  E   
--------------------------|
--------------------------|
--------------------------|
--------------------------|
-----8--8--8-----5--5--5--|
--0--8--8--8--0--5--5--5--|


  PM PM    PM       PM     
  E  E  E  E  E  E  E  E   
--------------------------|
--------------------------|
--------------------------|
--------------------------|
--0--0--0--0--0--0--0--0--|
--0--0--0--0--0--0--0--0--|


  PM    PM PM    PM        
  E  E  E  E  E  E  E  E   
--------------------------|
--------------------------|
--------------------------|
--------------------------|
--0--0--0--0--0--0--0--0--|
--0--0--0--0--0--0--0--0--|


  PM PM    PM       PM     
  E  E  E  E  E  E  E  E   
--------------------------|
--------------------------|
--------------------------|
--------------------------|
--0--0--0--0--0--0--0--0--|
--0--0--0--0--0--0--0--0--|


  PM          PM           
  E  E  E  E  E  E  E  E   
--------------------------|
--------------------------|
--------------------------|
--------------------------|
-----8--8--8-----5--5--5--|
--0--8--8--8--0--5--5--5--|


  E  E  E  E  E  E  E  E   
--------------------------|
--------------------------|
--------------------------|
--3--3--3--3--3--3--3--3--|
--1--1--1--1--1--1--1--1--|
--------------------------|


  E  E  E  E  E  E  E  E   
--------------------------|
--------------------------|
--------------------------|
--3--3--3--3--3--3--3--3--|
--1--1--1--1--1--1--1--1--|
--------------------------|


  E  E  E  E  E  E  E  E   
--------------------------|
--------------------------|
--------------------------|
--------------------------|
--0--0--0--0--0--0--0--0--|
--0--0--0--0--0--0--0--0--|


  E  E  E  E  E  E  E  E   
--------------------------|
--------------------------|
--------------------------|
--------------------------|
--0--0--0--0--0--0--0--0--|
--0--0--0--0--0--0--0--0--|


  E  E  E  E  E  E  E  E   
--------------------------|
--------------------------|
--------------------------|
--------------------------|
--3--3--3--3--3--3--3--3--|
--3--3--3--3--3--3--3--3--|


  E  E  E  E  E  E  E  E   
--------------------------|
--------------------------|
--------------------------|
--------------------------|
--3--3--3--3--3--3--3--3--|
--3--3--3--3--3--3--3--3--|


  E  E  E  E  E  E  E  E   
--------------------------|
--------------------------|
--------------------------|
--5--5--5--5--5--5--5--5--|
--3--3--3--3--3--3--3--3--|
--------------------------|


  E  E  E  E  E  E  E  E   
--------------------------|
--------------------------|
--------------------------|
--5--5--5--5--5--5--5--5--|
--3--3--3--3--3--3--3--3--|
--------------------------|


  E  E  E  E  E  E  E  E   
--------------------------|
--------------------------|
--------------------------|
--3--3--3--3--3--3--3--3--|
--1--1--1--1--1--1--1--1--|
--------------------------|


  E  E  E  E  E  E  E  E   
--------------------------|
--------------------------|
--------------------------|
--3--3--3--3--3--3--3--3--|
--1--1--1--1--1--1--1--1--|
--------------------------|


  E  E  E  E  E  E  E  E   
--------------------------|
--------------------------|
--------------------------|
--------------------------|
--0--0--0--0--0--0--0--0--|
--0--0--0--0--0--0--0--0--|


  E  E  E  E  E  E  E  E   
--------------------------|
--------------------------|
--------------------------|
--------------------------|
--0--0--0--0--0--0--0--0--|
--0--0--0--0--0--0--0--0--|


  E  E  E  E  E  E  E  E   
--------------------------|
--------------------------|
--------------------------|
--------------------------|
--3--3--3--3--3--3--3--3--|
--3--3--3--3--3--3--3--3--|


  E  E  E  E  E  E  E  E   
--------------------------|
--------------------------|
--------------------------|
--------------------------|
--3--3--3--3--3--3--3--3--|
--3--3--3--3--3--3--3--3--|


  E  E  E  E  E  E  E  E   
--------------------------|
--------------------------|
--------------------------|
--5--5--5--5--5--5--5--5--|
--3--3--3--3--3--3--3--3--|
--------------------------|


  E  E  E  E  E  E  E  E   
--------------------------|
--------------------------|
--------------------------|
--5--5--5--5--5--5--5--5--|
--3--3--3--3--3--3--3--3--|
--------------------------|


  PM PM PM PM PM     PM PM PM PM PM  
  S  S  S  S  Q.     S  S  E  S  S   
------------------------------------|
------------------------------------|
------------------------------------|
------------------------------------|
--0--0--0--0--0------0--0--0--0--0--|
--0--0--0--0--0------0--0--0--0--0--|


  PM     PM PM PM PM PM PM   
  Q.     S  S  E  E  S  E.   
----------------------------|
----------------------------|
----------------------------|
----------------------------|
--0------0--0--0--0--0--0---|
--0------0--0--0--0--0--0---|


  PM PM PM PM PM     PM PM PM PM  
  S  S  S  S  Q.     S  S  E  E   
---------------------------------|
---------------------------------|
---------------------------------|
---------------------------------|
--0--0--0--0--0------0--0--0--0--|
--0--0--0--0--0------0--0--0--0--|


  PM PM PM PM PM PM PM PM PM PM PM PM PM PM P
  S  S  S  S  S  S  S  S  S  S  S  S  S  S  S
---------------------------------------------
---------------------------------------------
---------------------------------------------
---------------------------------------------
--0--0--0--0--0--0--0--0--0--0--0--0--0--0--0
--0--0--0--0--0--0--0--0--0--0--0--0--0--0--0


  PM PM PM PM PM     PM PM PM PM PM  
  S  S  S  S  Q.     S  S  E  S  S   
------------------------------------|
------------------------------------|
------------------------------------|
------------------------------------|
--0--0--0--0--0------0--0--0--0--0--|
--0--0--0--0--0------0--0--0--0--0--|


  PM     PM PM PM PM PM PM   
  Q.     S  S  E  E  S  E.   
----------------------------|
----------------------------|
----------------------------|
----------------------------|
--0------0--0--0--0--0--0---|
--0------0--0--0--0--0--0---|


  PM PM PM PM PM     PM PM PM PM  
  S  S  S  S  Q.     S  S  E  E   
---------------------------------|
---------------------------------|
---------------------------------|
---------------------------------|
--0--0--0--0--0------0--0--0--0--|
--0--0--0--0--0------0--0--0--0--|


  H        H         
--------------------|
--------------------|
--------------------|
--8--------7--------|
--------------------|
--8--------7--------|


  PM PM PM PM PM PM       PM PM    PM PM  
  S  S  S  S  S  S  E  E  S  S  E  S  S   
-----------------------------------------|
-----------------------------------------|
-----------------------------------------|
-----------------------------------------|
--0--0--0--0--0--0--------0--0-----0--0--|
--0--0--0--0--0--0--------0--0-----0--0--|


           PM PM PM PM    PM PM     
  E  E  E  S  S  S  S  E  S  S  E   
-----------------------------------|
-----------------------------------|
-----------------------------------|
-----------------------------------|
-----------0--0--0--0-----0--0-----|
-----------0--0--0--0-----0--0-----|


  PM PM PM PM PM PM       PM PM    PM PM  
  S  S  S  S  S  S  E  E  S  S  E  S  S   
-----------------------------------------|
-----------------------------------------|
-----------------------------------------|
-----------------------------------------|
--0--0--0--0--0--0--------0--0-----0--0--|
--0--0--0--0--0--0--------0--0-----0--0--|


  PM PM PM PM PM PM PM PM PM         
  S  S  S  S  S  S  S  S  Q    Q     
------------------------------------|
------------------------------------|
------------------------------------|
------------------------------------|
------------------------------------|
--0--0--0--0--0--0--0--0--0---------|


  PM PM PM PM PM PM      PM PM    PM PM  
  S  S  S  S  S  S  Q    S  S  E  S  S   
----------------------------------------|
----------------------------------------|
----------------------------------------|
----------------------------------------|
--0--0--0--0--0--0--L----0--0--L--0--0--|
--0--0--0--0--0--0--L----0--0--L--0--0--|


         PM PM PM PM    PM PM     
  Q.     S  S  S  S  E  S  S  E   
---------------------------------|
---------------------------------|
---------------------------------|
---------------------------------|
--L------0--0--0--0--L--0--0--L--|
--L------0--0--0--0--L--0--0--L--|


  PM PM PM PM PM PM      PM PM    PM PM  
  S  S  S  S  S  S  Q    S  S  E  S  S   
----------------------------------------|
----------------------------------------|
----------------------------------------|
----------------------------------------|
--0--0--0--0--0--0--L----0--0--L--0--0--|
--0--0--0--0--0--0--L----0--0--L--0--0--|


  PM PM PM PM PM PM PM PM PM PM PM PM PM PM P
  S  S  S  S  S  S  S  S  S  S  S  S  S  S  S
---------------------------------------------
---------------------------------------------
---------------------------------------------
---------------------------------------------
---------------------------------------------
--0--0--0--0--0--0--0--0--0--0--0--0--0--0--0


  W                 
-------------------|
-------------------|
-------------------|
-------------------|
--0----------------|
--0----------------|


  E  E  E  E  E  E  E  E   
--------------------------|
--------------------------|
--------------------------|
--3--3--3--3--3--3--3--3--|
--1--1--1--1--1--1--1--1--|
--------------------------|


  E  E  E  E  E  E  E  E   
--------------------------|
--------------------------|
--------------------------|
--3--3--3--3--3--3--3--3--|
--1--1--1--1--1--1--1--1--|
--------------------------|


  E  E  E  E  E  E  E  E   
--------------------------|
--------------------------|
--------------------------|
--------------------------|
--0--0--0--0--0--0--0--0--|
--0--0--0--0--0--0--0--0--|


  E  E  E  E  E  E  E  E   
--------------------------|
--------------------------|
--------------------------|
--------------------------|
--0--0--0--0--0--0--0--0--|
--0--0--0--0--0--0--0--0--|


  E  E  E  E  E  E  E  E   
--------------------------|
--------------------------|
--------------------------|
--------------------------|
--3--3--3--3--3--3--3--3--|
--3--3--3--3--3--3--3--3--|


  E  E  E  E  E  E  E  E   
--------------------------|
--------------------------|
--------------------------|
--------------------------|
--3--3--3--3--3--3--3--3--|
--3--3--3--3--3--3--3--3--|


  E  E  E  E  E  E  E  E   
--------------------------|
--------------------------|
--------------------------|
--5--5--5--5--5--5--5--5--|
--3--3--3--3--3--3--3--3--|
--------------------------|


  E  E  E  E  E  E  E  E   
--------------------------|
--------------------------|
--------------------------|
--5--5--5--5--5--5--5--5--|
--3--3--3--3--3--3--3--3--|
--------------------------|


  E  E  E  E  E  E  E  E   
--------------------------|
--------------------------|
--------------------------|
--3--3--3--3--3--3--3--3--|
--1--1--1--1--1--1--1--1--|
--------------------------|


  E  E  E  E  E  E  E  E   
--------------------------|
--------------------------|
--------------------------|
--3--3--3--3--3--3--3--3--|
--1--1--1--1--1--1--1--1--|
--------------------------|


  E  E  E  E  E  E  E  E   
--------------------------|
--------------------------|
--------------------------|
--------------------------|
--0--0--0--0--0--0--0--0--|
--0--0--0--0--0--0--0--0--|


  E  E  E  E  E  E  E  E   
--------------------------|
--------------------------|
--------------------------|
--------------------------|
--0--0--0--0--0--0--0--0--|
--0--0--0--0--0--0--0--0--|


  E  E  E  E  E  E  E  E   
--------------------------|
--------------------------|
--------------------------|
--------------------------|
--3--3--3--3--3--3--3--3--|
--3--3--3--3--3--3--3--3--|


  E  E  E  E  E  E  E  E   
--------------------------|
--------------------------|
--------------------------|
--------------------------|
--3--3--3--3--3--3--3--3--|
--3--3--3--3--3--3--3--3--|


  E  E  E  E  E  E  E  E   
--------------------------|
--------------------------|
--------------------------|
--5--5--5--5--5--5--5--5--|
--3--3--3--3--3--3--3--3--|
--------------------------|


  E  E  E  E  E  E  E  E   
--------------------------|
--------------------------|
--------------------------|
--5--5--5--5--5--5--5--5--|
--3--3--3--3--3--3--3--3--|
--------------------------|


  W                   W                 
-------------------|-------------------|
-------------------|-------------------|
-------------------|-------------------|
-------------------|-------------------|
--0----------------|--L----------------|
--0----------------|--L----------------|


  PM                    
  Q    Q    Q    Q      
----------------------||
----------------------||
----------------------||
----------------------||
--0-------------------||
--0-------------------||





RHYTHM GUITAR 


C ||-------|-------------------|
G ||-------|-------------------|
D#||-------|--7----------------|
A#||-------|-------------------|
F ||-------|--5----------------|
A#||-------|-------------------|


  W                    W                 
-------------------|--------------------|
-------------------|--------------------|
--L----------------|--10----------------|
-------------------|--------------------|
--L----------------|---8----------------|
-------------------|--------------------|


  W                    W                 
-------------------|--------------------|
-------------------|--------------------|
--9----------------|--10----------------|
-------------------|--------------------|
--7----------------|---8----------------|
-------------------|--------------------|


  W                    W                 
-------------------|--------------------|
-------------------|--------------------|
--L----------------|--14----------------|
-------------------|--------------------|
--L----------------|--12----------------|
-------------------|--------------------|


   W                 
--------------------|
--------------------|
--12----------------|
--------------------|
--10----------------|
--------------------|


  PM   PM      PM PM PM  
  Q    Q    E  E  E  E   
------------------------|
------------------------|
------------------------|
------------------------|
--0----0-------0--0--0--|
--0----0-------0--0--0--|


  PM   PM      PM PM PM PM  
  Q    Q    E  S  S  E  E   
---------------------------|
---------------------------|
---------------------------|
---------------------------|
--0----0-------0--0--0--0--|
--0----0-------0--0--0--0--|


  PM   PM      PM PM PM  
  Q    Q    E  E  E  E   
------------------------|
------------------------|
------------------------|
------------------------|
--0----0-------0--0--0--|
--0----0-------0--0--0--|


           PM          PM          
   E    E  E   E    E  E  E    E   
----------------------------------|
----------------------------------|
--14s--12-----12s--10-----9s--10--|
----------------------------------|
--12s--10-----10s---8-----7s---8--|
-----------0-----------0----------|


  PM   PM      PM PM PM  
  Q    Q    E  E  E  E   
------------------------|
------------------------|
------------------------|
------------------------|
--0----0-------0--0--0--|
--0----0-------0--0--0--|


  PM   PM      PM PM PM PM  
  Q    Q    E  S  S  E  E   
---------------------------|
---------------------------|
---------------------------|
---------------------------|
--0----0-------0--0--0--0--|
--0----0-------0--0--0--0--|


  PM   PM      PM PM PM  
  Q    Q    E  E  E  E   
------------------------|
------------------------|
------------------------|
------------------------|
--0----0-------0--0--0--|
--0----0-------0--0--0--|


           PM          PM          
   E    E  E   E    E  E  E    E   
----------------------------------|
----------------------------------|
--14s--12-----12s--10-----9s--10--|
----------------------------------|
--12s--10-----10s---8-----7s---8--|
-----------0-----------0----------|


  PM PM    PM    PM PM     
  E  E  E  E  E  E  E  E   
--------------------------|
--------------------------|
--------------------------|
--------------------------|
--------5-----8--------4--|
--0--0-----0-----0--0-----|


  PM    PM PM    PM        
  E  E  E  E  E  E  E  E   
--------------------------|
--------------------------|
--------------------------|
--------------------7-----|
-----7--------5--------8--|
--0-----0--0-----0--------|


  PM PM    PM    PM PM     
  E  E  E  E  E  E  E  E   
--------------------------|
--------------------------|
--------------------------|
--------------------------|
--------5-----8--------4--|
--0--0-----0-----0--0-----|


  PM    PM PM                
  E  E  E  E  E   E  E   E   
----------------------------|
----------------------------|
----------------------------|
----------------------------|
-----7--------0h--1--0h--1--|
--0-----0--0----------------|


  PM PM    PM    PM PM     
  E  E  E  E  E  E  E  E   
--------------------------|
--------------------------|
--------------------------|
--------------------------|
--------5-----8--------4--|
--0--0-----0-----0--0-----|


  PM    PM PM    PM        
  E  E  E  E  E  E  E  E   
--------------------------|
--------------------------|
--------------------------|
--------------------7-----|
-----7--------5--------8--|
--0-----0--0-----0--------|


  PM PM    PM    PM PM     
  E  E  E  E  E  E  E  E   
--------------------------|
--------------------------|
--------------------------|
--------------------------|
--------5-----8--------4--|
--0--0-----0-----0--0-----|


  PM    PM PM                
  E  E  E  E  E   E  E   E   
----------------------------|
----------------------------|
----------------------------|
----------------------------|
-----7--------0h--1--0h--1--|
--0-----0--0----------------|


  E  E  E  E  E  E  E  E   
--------------------------|
--------------------------|
--------------------------|
--3--3--3--3--3--3--3--3--|
--1--1--1--1--1--1--1--1--|
--------------------------|


  E  E  E  E  E  E  E  E   
--------------------------|
--------------------------|
--------------------------|
--3--3--3--3--3--3--3--3--|
--1--1--1--1--1--1--1--1--|
--------------------------|


  E  E  E  E  E  E  E  E   
--------------------------|
--------------------------|
--------------------------|
--7--7--7--7--7--7--7--7--|
--5--5--5--5--5--5--5--5--|
--------------------------|


  E  E  E  E  E  E  E  E   
--------------------------|
--------------------------|
--------------------------|
--7--7--7--7--7--7--7--7--|
--5--5--5--5--5--5--5--5--|
--------------------------|


   E   E   E   E   E   E   E   E   
----------------------------------|
----------------------------------|
----------------------------------|
--10--10--10--10--10--10--10--10--|
---8---8---8---8---8---8---8---8--|
----------------------------------|


   E   E   E   E   E   E   E   E   
----------------------------------|
----------------------------------|
----------------------------------|
--10--10--10--10--10--10--10--10--|
---8---8---8---8---8---8---8---8--|
----------------------------------|


  E  E  E  E  E  E  E  E   
--------------------------|
--------------------------|
--------------------------|
--5--5--5--5--5--5--5--5--|
--3--3--3--3--3--3--3--3--|
--------------------------|


  E  E  E  E  E  E  E  E   
--------------------------|
--------------------------|
--------------------------|
--5--5--5--5--5--5--5--5--|
--3--3--3--3--3--3--3--3--|
--------------------------|


  E  E  E  E  E  E  E  E   
--------------------------|
--------------------------|
--------------------------|
--3--3--3--3--3--3--3--3--|
--1--1--1--1--1--1--1--1--|
--------------------------|


  E  E  E  E  E  E  E  E   
--------------------------|
--------------------------|
--------------------------|
--3--3--3--3--3--3--3--3--|
--1--1--1--1--1--1--1--1--|
--------------------------|


  E  E  E  E  E  E  E  E   
--------------------------|
--------------------------|
--------------------------|
--7--7--7--7--7--7--7--7--|
--5--5--5--5--5--5--5--5--|
--------------------------|


  E  E  E  E  E  E  E  E   
--------------------------|
--------------------------|
--------------------------|
--7--7--7--7--7--7--7--7--|
--5--5--5--5--5--5--5--5--|
--------------------------|


   E   E   E   E   E   E   E   E   
----------------------------------|
----------------------------------|
----------------------------------|
--10--10--10--10--10--10--10--10--|
---8---8---8---8---8---8---8---8--|
----------------------------------|


   E   E   E   E   E   E   E   E   
----------------------------------|
----------------------------------|
----------------------------------|
--10--10--10--10--10--10--10--10--|
---8---8---8---8---8---8---8---8--|
----------------------------------|


  E  E  E  E  E  E  E  E   
--------------------------|
--------------------------|
--------------------------|
--5--5--5--5--5--5--5--5--|
--3--3--3--3--3--3--3--3--|
--------------------------|


  E  E  E  E  E  E  E  E   
--------------------------|
--------------------------|
--------------------------|
--5--5--5--5--5--5--5--5--|
--3--3--3--3--3--3--3--3--|
--------------------------|


  Q    Q    E  E  E  E   
------------------------|
------------------------|
------------------------|
------------------------|
------------------------|
--0----0-------0--0--0--|


            PM  PM  PM  
  Q    Q    E.  E.  E   
-----------------------|
-----------------------|
-----------------------|
-----------------------|
------------0---0---0--|
--0----0----0---0---0--|


  PM   PM      PM PM PM  
  Q    Q    E  E  E  E   
------------------------|
------------------------|
------------------------|
------------------------|
--0----0-------0--0--0--|
--0----0-------0--0--0--|


  PM   PM      PM PM PM PM  
  Q    Q    E  S  S  E  E   
---------------------------|
---------------------------|
---------------------------|
---------------------------|
--0----0-------0--0--0--0--|
--0----0-------0--0--0--0--|


  PM   PM      PM PM PM  
  Q    Q    E  E  E  E   
------------------------|
------------------------|
------------------------|
------------------------|
--0----0-------0--0--0--|
--0----0-------0--0--0--|


           PM          PM          
   E    E  E   E    E  E  E    E   
----------------------------------|
----------------------------------|
--14s--12-----12s--10-----9s--10--|
----------------------------------|
--12s--10-----10s---8-----7s---8--|
-----------0-----------0----------|


  PM   PM      PM PM PM  
  Q    Q    E  E  E  E   
------------------------|
------------------------|
------------------------|
------------------------|
--0----0-------0--0--0--|
--0----0-------0--0--0--|


  PM   PM      PM PM PM PM  
  Q    Q    E  S  S  E  E   
---------------------------|
---------------------------|
---------------------------|
---------------------------|
--0----0-------0--0--0--0--|
--0----0-------0--0--0--0--|


  PM   PM      PM PM PM  
  Q    Q    E  E  E  E   
------------------------|
------------------------|
------------------------|
------------------------|
--0----0-------0--0--0--|
--0----0-------0--0--0--|


           PM          PM          
   E    E  E   E    E  E  E    E   
----------------------------------|
----------------------------------|
--14s--12-----12s--10-----9s--10--|
----------------------------------|
--12s--10-----10s---8-----7s---8--|
-----------0-----------0----------|


  PM PM    PM    PM PM     
  E  E  E  E  E  E  E  E   
--------------------------|
--------------------------|
--------------------------|
--------------------------|
--------5-----8--------4--|
--0--0-----0-----0--0-----|


  PM    PM PM    PM        
  E  E  E  E  E  E  E  E   
--------------------------|
--------------------------|
--------------------------|
--------------------7-----|
-----7--------5--------8--|
--0-----0--0-----0--------|


  PM PM    PM    PM PM     
  E  E  E  E  E  E  E  E   
--------------------------|
--------------------------|
--------------------------|
--------------------------|
--------5-----8--------4--|
--0--0-----0-----0--0-----|


  PM    PM PM                
  E  E  E  E  E   E  E   E   
----------------------------|
----------------------------|
----------------------------|
----------------------------|
-----7--------0h--1--0h--1--|
--0-----0--0----------------|


  PM PM    PM    PM PM     
  E  E  E  E  E  E  E  E   
--------------------------|
--------------------------|
--------------------------|
--------------------------|
--------5-----8--------4--|
--0--0-----0-----0--0-----|


  PM    PM PM    PM        
  E  E  E  E  E  E  E  E   
--------------------------|
--------------------------|
--------------------------|
--------------------7-----|
-----7--------5--------8--|
--0-----0--0-----0--------|


  PM PM    PM    PM PM     
  E  E  E  E  E  E  E  E   
--------------------------|
--------------------------|
--------------------------|
--------------------------|
--------5-----8--------4--|
--0--0-----0-----0--0-----|


  PM    PM PM                
  E  E  E  E  E   E  E   E   
----------------------------|
----------------------------|
----------------------------|
----------------------------|
-----7--------0h--1--0h--1--|
--0-----0--0----------------|


  E  E  E  E  E  E  E  E   
--------------------------|
--------------------------|
--------------------------|
--3--3--3--3--3--3--3--3--|
--1--1--1--1--1--1--1--1--|
--------------------------|


  E  E  E  E  E  E  E  E   
--------------------------|
--------------------------|
--------------------------|
--3--3--3--3--3--3--3--3--|
--1--1--1--1--1--1--1--1--|
--------------------------|


  E  E  E  E  E  E  E  E   
--------------------------|
--------------------------|
--------------------------|
--7--7--7--7--7--7--7--7--|
--5--5--5--5--5--5--5--5--|
--------------------------|


  E  E  E  E  E  E  E  E   
--------------------------|
--------------------------|
--------------------------|
--7--7--7--7--7--7--7--7--|
--5--5--5--5--5--5--5--5--|
--------------------------|


   E   E   E   E   E   E   E   E   
----------------------------------|
----------------------------------|
----------------------------------|
--10--10--10--10--10--10--10--10--|
---8---8---8---8---8---8---8---8--|
----------------------------------|


   E   E   E   E   E   E   E   E   
----------------------------------|
----------------------------------|
----------------------------------|
--10--10--10--10--10--10--10--10--|
---8---8---8---8---8---8---8---8--|
----------------------------------|


  E  E  E  E  E  E  E  E   
--------------------------|
--------------------------|
--------------------------|
--5--5--5--5--5--5--5--5--|
--3--3--3--3--3--3--3--3--|
--------------------------|


  E  E  E  E  E  E  E  E   
--------------------------|
--------------------------|
--------------------------|
--5--5--5--5--5--5--5--5--|
--3--3--3--3--3--3--3--3--|
--------------------------|


  E  E  E  E  E  E  E  E   
--------------------------|
--------------------------|
--------------------------|
--3--3--3--3--3--3--3--3--|
--1--1--1--1--1--1--1--1--|
--------------------------|


  E  E  E  E  E  E  E  E   
--------------------------|
--------------------------|
--------------------------|
--3--3--3--3--3--3--3--3--|
--1--1--1--1--1--1--1--1--|
--------------------------|


  E  E  E  E  E  E  E  E   
--------------------------|
--------------------------|
--------------------------|
--7--7--7--7--7--7--7--7--|
--5--5--5--5--5--5--5--5--|
--------------------------|


  E  E  E  E  E  E  E  E   
--------------------------|
--------------------------|
--------------------------|
--7--7--7--7--7--7--7--7--|
--5--5--5--5--5--5--5--5--|
--------------------------|


   E   E   E   E   E   E   E   E   
----------------------------------|
----------------------------------|
----------------------------------|
--10--10--10--10--10--10--10--10--|
---8---8---8---8---8---8---8---8--|
----------------------------------|


   E   E   E   E   E   E   E   E   
----------------------------------|
----------------------------------|
----------------------------------|
--10--10--10--10--10--10--10--10--|
---8---8---8---8---8---8---8---8--|
----------------------------------|


  E  E  E  E  E  E  E  E   
--------------------------|
--------------------------|
--------------------------|
--5--5--5--5--5--5--5--5--|
--3--3--3--3--3--3--3--3--|
--------------------------|


  E  E  E  E  E  E  E  E   
--------------------------|
--------------------------|
--------------------------|
--5--5--5--5--5--5--5--5--|
--3--3--3--3--3--3--3--3--|
--------------------------|


  S S S S S S S S S S S S S S S S  
----------------------------------|
----------------------------------|
--7-7-7-7-7-7-7-7-7-7-7-7-7-7-7-7-|
----------------------------------|
--5-5-5-5-5-5-5-5-5-5-5-5-5-5-5-5-|
----------------------------------|


   S  S  S  S  S  S  S  S S S S S S S S S  
------------------------------------------|
------------------------------------------|
--10-10-10-10-10-10-10-10-9-9-9-9-9-9-9-9-|
------------------------------------------|
---8--8--8--8--8--8--8--8-7-7-7-7-7-7-7-7-|
------------------------------------------|


  S S S S S S S S S S S S S S S S  
----------------------------------|
----------------------------------|
--6-6-6-6-6-6-6-6-6-6-6-6-6-6-6-6-|
----------------------------------|
--4-4-4-4-4-4-4-4-4-4-4-4-4-4-4-4-|
----------------------------------|


  S S S S S S S S S S S S S S S S  
----------------------------------|
----------------------------------|
--3-3-3-3-3-3-3-3-2-2-2-2-2-2-2-2-|
----------------------------------|
--1-1-1-1-1-1-1-1-0-0-0-0-0-0-0-0-|
----------------------------------|


  S S S S S S S S S S S S S S S S  
----------------------------------|
----------------------------------|
--7-7-7-7-7-7-7-7-7-7-7-7-7-7-7-7-|
----------------------------------|
--5-5-5-5-5-5-5-5-5-5-5-5-5-5-5-5-|
----------------------------------|


   S  S  S  S  S  S  S  S S S S S S S S S  
------------------------------------------|
------------------------------------------|
--10-10-10-10-10-10-10-10-9-9-9-9-9-9-9-9-|
------------------------------------------|
---8--8--8--8--8--8--8--8-7-7-7-7-7-7-7-7-|
------------------------------------------|


   S  S  S  S  S  S  S  S  S  S  S  S  S  S  
---------------------------------------------
---------------------------------------------
--12-12-12-12-12-12-12-12-12-12-12-12-12-12-1
---------------------------------------------
--10-10-10-10-10-10-10-10-10-10-10-10-10-10-1
---------------------------------------------


  H        H         
--------------------|
--------------------|
--------------------|
--8--------7--------|
--------------------|
--8--------7--------|


  PM PM PM PM PM PM       PM PM    PM PM  
  S  S  S  S  S  S  E  E  S  S  E  S  S   
-----------------------------------------|
-----------------------------------------|
-----------------------------------------|
-----------------------------------------|
--0--0--0--0--0--0--------0--0-----0--0--|
--0--0--0--0--0--0--------0--0-----0--0--|


           PM PM PM PM    PM PM     
  E  E  E  S  S  S  S  E  S  S  E   
-----------------------------------|
-----------------------------------|
-----------------------------------|
-----------------------------------|
-----------0--0--0--0-----0--0-----|
-----------0--0--0--0-----0--0-----|


  PM PM PM PM PM PM       PM PM    PM PM  
  S  S  S  S  S  S  E  E  S  S  E  S  S   
-----------------------------------------|
-----------------------------------------|
-----------------------------------------|
-----------------------------------------|
--0--0--0--0--0--0--------0--0-----0--0--|
--0--0--0--0--0--0--------0--0-----0--0--|


  PM PM PM PM PM PM PM PM PM         
  S  S  S  S  S  S  S  S  Q    Q     
------------------------------------|
------------------------------------|
------------------------------------|
------------------------------------|
------------------------------------|
--0--0--0--0--0--0--0--0--0---------|


  PM PM PM PM PM PM      PM PM    PM PM  
  S  S  S  S  S  S  Q    S  S  E  S  S   
----------------------------------------|
----------------------------------------|
----------------------------------------|
----------------------------------------|
--0--0--0--0--0--0--L----0--0--L--0--0--|
--0--0--0--0--0--0--L----0--0--L--0--0--|


         PM PM PM PM    PM PM     
  Q.     S  S  S  S  E  S  S  E   
---------------------------------|
---------------------------------|
---------------------------------|
---------------------------------|
--L------0--0--0--0--L--0--0--L--|
--L------0--0--0--0--L--0--0--L--|


  PM PM PM PM PM PM      PM PM    PM PM  
  S  S  S  S  S  S  Q    S  S  E  S  S   
----------------------------------------|
----------------------------------------|
----------------------------------------|
----------------------------------------|
--0--0--0--0--0--0--L----0--0--L--0--0--|
--0--0--0--0--0--0--L----0--0--L--0--0--|


  PM PM PM PM PM PM PM PM PM PM PM PM PM PM P
  S  S  S  S  S  S  S  S  S  S  S  S  S  S  S
---------------------------------------------
---------------------------------------------
---------------------------------------------
---------------------------------------------
---------------------------------------------
--0--0--0--0--0--0--0--0--0--0--0--0--0--0--0


   T  T  T  T  T  T  T  T  T  T  T  T  T  T  
---------------------------------------------
---------------------------------------------
---------------------------------------------
---------------------------------------------
--30-29-28-27-26-25-24-23-22-21-20-19-18-17-1
--30-29-28-27-26-25-24-23-22-21-20-19-18-17-1


  E  E  E  E  E  E  E  E   
--------------------------|
--------------------------|
--------------------------|
--3--3--3--3--3--3--3--3--|
--1--1--1--1--1--1--1--1--|
--------------------------|


  E  E  E  E  E  E  E  E   
--------------------------|
--------------------------|
--------------------------|
--3--3--3--3--3--3--3--3--|
--1--1--1--1--1--1--1--1--|
--------------------------|


  E  E  E  E  E  E  E  E   
--------------------------|
--------------------------|
--------------------------|
--7--7--7--7--7--7--7--7--|
--5--5--5--5--5--5--5--5--|
--------------------------|


  E  E  E  E  E  E  E  E   
--------------------------|
--------------------------|
--------------------------|
--7--7--7--7--7--7--7--7--|
--5--5--5--5--5--5--5--5--|
--------------------------|


   E   E   E   E   E   E   E   E   
----------------------------------|
----------------------------------|
----------------------------------|
--10--10--10--10--10--10--10--10--|
---8---8---8---8---8---8---8---8--|
----------------------------------|


   E   E   E   E   E   E   E   E   
----------------------------------|
----------------------------------|
----------------------------------|
--10--10--10--10--10--10--10--10--|
---8---8---8---8---8---8---8---8--|
----------------------------------|


  E  E  E  E  E  E  E  E   
--------------------------|
--------------------------|
--------------------------|
--5--5--5--5--5--5--5--5--|
--3--3--3--3--3--3--3--3--|
--------------------------|


  E  E  E  E  E  E  E  E   
--------------------------|
--------------------------|
--------------------------|
--5--5--5--5--5--5--5--5--|
--3--3--3--3--3--3--3--3--|
--------------------------|


  E  E  E  E  E  E  E  E   
--------------------------|
--------------------------|
--------------------------|
--3--3--3--3--3--3--3--3--|
--1--1--1--1--1--1--1--1--|
--------------------------|


  E  E  E  E  E  E  E  E   
--------------------------|
--------------------------|
--------------------------|
--3--3--3--3--3--3--3--3--|
--1--1--1--1--1--1--1--1--|
--------------------------|


  E  E  E  E  E  E  E  E   
--------------------------|
--------------------------|
--------------------------|
--7--7--7--7--7--7--7--7--|
--5--5--5--5--5--5--5--5--|
--------------------------|


  E  E  E  E  E  E  E  E   
--------------------------|
--------------------------|
--------------------------|
--7--7--7--7--7--7--7--7--|
--5--5--5--5--5--5--5--5--|
--------------------------|


   E   E   E   E   E   E   E   E   
----------------------------------|
----------------------------------|
----------------------------------|
--10--10--10--10--10--10--10--10--|
---8---8---8---8---8---8---8---8--|
----------------------------------|


   E   E   E   E   E   E   E   E   
----------------------------------|
----------------------------------|
----------------------------------|
--10--10--10--10--10--10--10--10--|
---8---8---8---8---8---8---8---8--|
----------------------------------|


  E  E  E  E  E  E  E  E   
--------------------------|
--------------------------|
--------------------------|
--5--5--5--5--5--5--5--5--|
--3--3--3--3--3--3--3--3--|
--------------------------|


  E  E  E  E  E  E  E  E   
--------------------------|
--------------------------|
--------------------------|
--5--5--5--5--5--5--5--5--|
--3--3--3--3--3--3--3--3--|
--------------------------|


  W                   W                 
-------------------|-------------------|
-------------------|-------------------|
-------------------|-------------------|
-------------------|-------------------|
--0----------------|--L----------------|
--0----------------|--L----------------|


  PM                    
  Q    Q    Q    Q      
----------------------||
----------------------||
----------------------||
----------------------||
--0-------------------||
--0-------------------||
Tap to rate this tab
# A B C D E F G H I J K L M N O P Q R S T U V W X Y Z