Song name
# A B C D E F G H I J K L M N O P Q R S T U V W X Y Z

A Day To Remember - If It Means A Lot To You chords

Highlighted       Show chord diagrams

There's a lot of wrong tabs for this song 
and this should be correct from watching them live

Drop C tuning [C,G,C,F,A,D] 
Chords:
Fmaj7
C
G
Am

Intro 2nd guitar 
D|-----------------------------8-8----------------------------------------|
A|-----------------------------8-8----------------------------------------|
F|-5--7-5-----------5--7-5------------5--7-5---------444-55-4-55-4--------|
C|--------5--7-7-----------5--7--------------5--7-7-----------------------|
G|------------------------------------------------------------------------|
C|------------------------------------------------------------------------|

D|-----------------------------8-8-----------------------------------8----|
A|-----------------------------8-8-----------------------------------8----|
F|-5--7-5-----------5--7-5------------5--7-5---------444-55-4-55-4---5----|
C|--------5--7-7-----------5--7--------------5--7-7-----------------------|
G|------------------------------------------------------------------------|
C|------------------------------------------------------------------------|

4/4
Intro 1st guitar
 (rest between Fmaj7s)   
Fmaj7    /      /C      /G      /
Fmaj7   /      /C      /G      /

Verse 1  
Am                C
   And hey sweetie
       G            Am
Well I need you here tonight
      C                   G
And I know that you don't feel right when im leaving
Am
Yeah you want it but I can't help it
C              G                    Am
I just feel complete when you're by my side
      C                   G
But I know you can't come home 'til they're singing

Pre-chorus

Fmaj7     G        Am
La, la la la,la la la
 G
'Til everyone is singing
          
Chorus 1

C                      G
  If you can wait till I get home
       Am
Then I swear to you
     Fmaj7
That we can make this last
(La la la)
C                      G
  If you can wait till I get home
       Am
Then I swear come tomorrow
                        Fmaj7
This will all be in the past
        C                G
Well it might be for the best


Intro thingy 
2nd guitar
D|-----------------------------8-8-----------------------------------8----|
A|-----------------------------8-8-----------------------------------8----|
F|-5--7-5-----------5--7-5------------5--7-5---------444-55-4-55-4---5----|
C|--------5--7-7-----------5--7--------------5--7-7-----------------------|
G|------------------------------------------------------------------------|
C|------------------------------------------------------------------------|
1st guitar
Fmaj7   /      /C      /G      /



Verse 2

Am         C
   And hey sweetie
G               Am
Well I need you here tonight
      C                   G
And I know that you don't wanna believe in me
Am
Yeah you want it but I can't help it
C               G                  Am
I just feel complete when you're by my side
       C                   G
But I know you can't come home 'til they're singing

Pre-chorus 2

Fmaj7      G     Am
La, la la la, la la la
G
'Til everyone is singing
Fmaj      G      
La, la la la, la la la

Chorus 2

C                      G
  If you can wait till I get home
       Am
Then I swear to you
     Fmaj7
That we can make this last
(La la la)
C                      G
  If you can wait till I get home
       Am
Then I swear come tomorrow
                        Fmaj7
This will all be in the past
        C                G
Well it might be for the best


Bridge                          

Fmaj7                   Fmaj7          C
     You know you can't give me what I need
         C                 Am
And even though you mean so much to me
        Am              G
I can't wait through everything
        G
Is this really happening



Fmaj7                              C
      I swear I'll never be happy again
                              Am
And don't you dare say we can just be friends
                              G
I'm not just some boy you can sway
             G
We knew it'd happen eventually

Outro

Fmaj7      G     Am
La, la la la, la la la
        C
Til everybody's singing
Fmaj7      G     Am
La, la la la, la la la
        C
Til everybody's singing
Fmaj7      G     Am
La, la la la, la la la
        C
If you can wait ‘til I get home
(Now everybody's singing)
Fmaj7      G     Am
Then I swear to you that we can make this last

(La, la la la, la la la
        C            Fmaj7
Til everybody's singing)

If you can wait ‘til I get home

(La, la la la, la la la

Til everybody's singing)

Then I swear to you that we can make this last

(La, la la la, la la la

Now everybody's singing)

La

     
     


     












Tap to rate this tab
 
# A B C D E F G H I J K L M N O P Q R S T U V W X Y Z